  0
SECTION
  2
HEADER
  9
$ACADVER
  1
AC1021
  9
$ACADMAINTVER
 70
    25
  9
$DWGCODEPAGE
  3
ANSI_1252
  9
$INSBASE
 10
0.0
 20
0.0
 30
0.0
  9
$EXTMIN
 10
-9.1825
 20
-422.1001
 30
0.0
  9
$EXTMAX
 10
4357.0997
 20
2234.46
 30
0.0
  9
$LIMMIN
 10
-9.1825
 20
-422.1001
  9
$LIMMAX
 10
4357.0997
 20
2234.46
  9
$ORTHOMODE
 70
     0
  9
$REGENMODE
 70
     1
  9
$FILLMODE
 70
     1
  9
$QTEXTMODE
 70
     0
  9
$MIRRTEXT
 70
     1
  9
$LTSCALE
 40
1.0
  9
$ATTMODE
 70
     1
  9
$TEXTSIZE
 40
0.2
  9
$TRACEWID
 40
0.05
  9
$TEXTSTYLE
  7
STANDARD
  9
$CLAYER
  8
default
  9
$CELTYPE
  6
BYLAYER
  9
$CECOLOR
 62
   256
  9
$CELTSCALE
 40
1.0
  9
$DISPSILH
 70
     0
  9
$DIMSCALE
 40
1.0
  9
$DIMASZ
 40
0.18
  9
$DIMEXO
 40
0.0625
  9
$DIMDLI
 40
0.38
  9
$DIMRND
 40
0.0
  9
$DIMDLE
 40
0.0
  9
$DIMEXE
 40
0.18
  9
$DIMTP
 40
0.0
  9
$DIMTM
 40
0.0
  9
$DIMTXT
 40
0.18
  9
$DIMCEN
 40
0.09
  9
$DIMTSZ
 40
0.0
  9
$DIMTOL
 70
     0
  9
$DIMLIM
 70
     0
  9
$DIMTIH
 70
     1
  9
$DIMTOH
 70
     1
  9
$DIMSE1
 70
     0
  9
$DIMSE2
 70
     0
  9
$DIMTAD
 70
     0
  9
$DIMZIN
 70
     0
  9
$DIMBLK
  1

  9
$DIMASO
 70
     1
  9
$DIMSHO
 70
     1
  9
$DIMPOST
  1

  9
$DIMAPOST
  1

  9
$DIMALT
 70
     0
  9
$DIMALTD
 70
     2
  9
$DIMALTF
 40
25.4
  9
$DIMLFAC
 40
1.0
  9
$DIMTOFL
 70
     0
  9
$DIMTVP
 40
0.0
  9
$DIMTIX
 70
     0
  9
$DIMSOXD
 70
     0
  9
$DIMSAH
 70
     0
  9
$DIMBLK1
  1

  9
$DIMBLK2
  1

  9
$DIMSTYLE
  2
STANDARD
  9
$DIMCLRD
 70
     0
  9
$DIMCLRE
 70
     0
  9
$DIMCLRT
 70
     0
  9
$DIMTFAC
 40
1.0
  9
$DIMGAP
 40
0.09
  9
$DIMJUST
 70
     0
  9
$DIMSD1
 70
     0
  9
$DIMSD2
 70
     0
  9
$DIMTOLJ
 70
     1
  9
$DIMTZIN
 70
     0
  9
$DIMALTZ
 70
     0
  9
$DIMALTTZ
 70
     0
  9
$DIMUPT
 70
     0
  9
$DIMDEC
 70
     4
  9
$DIMTDEC
 70
     4
  9
$DIMALTU
 70
     2
  9
$DIMALTTD
 70
     2
  9
$DIMTXSTY
  7
STANDARD
  9
$DIMAUNIT
 70
     0
  9
$DIMADEC
 70
     0
  9
$DIMALTRND
 40
0.0
  9
$DIMAZIN
 70
     0
  9
$DIMDSEP
 70
    46
  9
$DIMATFIT
 70
     3
  9
$DIMFRAC
 70
     0
  9
$DIMLDRBLK
  1

  9
$DIMLUNIT
 70
     2
  9
$DIMLWD
 70
    -2
  9
$DIMLWE
 70
    -2
  9
$DIMTMOVE
 70
     2
  9
$DIMFXL
 40
1.0
  9
$DIMFXLON
 70
     0
  9
$DIMJOGANG
 40
0.7853981633974483
  9
$DIMTFILL
 70
     0
  9
$DIMTFILLCLR
 70
     0
  9
$DIMARCSYM
 70
     0
  9
$DIMLTYPE
  6

  9
$DIMLTEX1
  6

  9
$DIMLTEX2
  6

  9
$LUNITS
 70
     2
  9
$LUPREC
 70
     4
  9
$SKETCHINC
 40
0.1
  9
$FILLETRAD
 40
0.5
  9
$AUNITS
 70
     0
  9
$AUPREC
 70
     0
  9
$MENU
  1
.
  9
$ELEVATION
 40
0.0
  9
$PELEVATION
 40
0.0
  9
$THICKNESS
 40
0.0
  9
$LIMCHECK
 70
     0
  9
$CHAMFERA
 40
0.5
  9
$CHAMFERB
 40
0.5
  9
$CHAMFERC
 40
1.0
  9
$CHAMFERD
 40
0.0
  9
$SKPOLY
 70
     0
  9
$TDCREATE
 40
2458079.4086111
  9
$TDUCREATE
 40
2458079.366944433
  9
$TDUPDATE
 40
2458079.4086111
  9
$TDUUPDATE
 40
2458079.366944433
  9
$TDINDWG
 40
0.0
  9
$TDUSRTIMER
 40
0.0
  9
$USRTIMER
 70
     1
  9
$ANGBASE
 50
0.0
  9
$ANGDIR
 70
     0
  9
$PDMODE
 70
     0
  9
$PDSIZE
 40
0.0
  9
$PLINEWID
 40
0.0
  9
$SPLFRAME
 70
     0
  9
$SPLINETYPE
 70
     6
  9
$SPLINESEGS
 70
     8
  9
$HANDSEED
  5
3C2
  9
$SURFTAB1
 70
     6
  9
$SURFTAB2
 70
     6
  9
$SURFTYPE
 70
     6
  9
$SURFU
 70
     6
  9
$SURFV
 70
     6
  9
$UCSBASE
  2

  9
$UCSNAME
  2

  9
$UCSORG
 10
0.0
 20
0.0
 30
0.0
  9
$UCSXDIR
 10
1.0
 20
0.0
 30
0.0
  9
$UCSYDIR
 10
0.0
 20
1.0
 30
0.0
  9
$UCSORTHOREF
  2

  9
$UCSORTHOVIEW
 70
     0
  9
$UCSORGTOP
 10
0.0
 20
0.0
 30
0.0
  9
$UCSORGBOTTOM
 10
0.0
 20
0.0
 30
0.0
  9
$UCSORGLEFT
 10
0.0
 20
0.0
 30
0.0
  9
$UCSORGRIGHT
 10
0.0
 20
0.0
 30
0.0
  9
$UCSORGFRONT
 10
0.0
 20
0.0
 30
0.0
  9
$UCSORGBACK
 10
0.0
 20
0.0
 30
0.0
  9
$PUCSBASE
  2

  9
$PUCSNAME
  2

  9
$PUCSORG
 10
0.0
 20
0.0
 30
0.0
  9
$PUCSXDIR
 10
1.0
 20
0.0
 30
0.0
  9
$PUCSYDIR
 10
0.0
 20
1.0
 30
0.0
  9
$PUCSORTHOREF
  2

  9
$PUCSORTHOVIEW
 70
     0
  9
$PUCSORGTOP
 10
0.0
 20
0.0
 30
0.0
  9
$PUCSORGBOTTOM
 10
0.0
 20
0.0
 30
0.0
  9
$PUCSORGLEFT
 10
0.0
 20
0.0
 30
0.0
  9
$PUCSORGRIGHT
 10
0.0
 20
0.0
 30
0.0
  9
$PUCSORGFRONT
 10
0.0
 20
0.0
 30
0.0
  9
$PUCSORGBACK
 10
0.0
 20
0.0
 30
0.0
  9
$USERI1
 70
     0
  9
$USERI2
 70
     0
  9
$USERI3
 70
     0
  9
$USERI4
 70
     0
  9
$USERI5
 70
     0
  9
$USERR1
 40
0.0
  9
$USERR2
 40
0.0
  9
$USERR3
 40
0.0
  9
$USERR4
 40
0.0
  9
$USERR5
 40
0.0
  9
$WORLDVIEW
 70
     1
  9
$SHADEDGE
 70
     3
  9
$SHADEDIF
 70
    70
  9
$TILEMODE
 70
     1
  9
$MAXACTVP
 70
    48
  9
$PINSBASE
 10
0.0
 20
0.0
 30
0.0
  9
$PLIMCHECK
 70
     0
  9
$PEXTMIN
 10
1.000000000000000E+20
 20
1.000000000000000E+20
 30
1.000000000000000E+20
  9
$PEXTMAX
 10
-1.000000000000000E+20
 20
-1.000000000000000E+20
 30
-1.000000000000000E+20
  9
$PLIMMIN
 10
0.0
 20
0.0
  9
$PLIMMAX
 10
12.0
 20
9.0
  9
$UNITMODE
 70
     0
  9
$VISRETAIN
 70
     1
  9
$PLINEGEN
 70
     0
  9
$PSLTSCALE
 70
     1
  9
$TREEDEPTH
 70
  3020
  9
$CMLSTYLE
  2
STANDARD
  9
$CMLJUST
 70
     0
  9
$CMLSCALE
 40
1.0
  9
$PROXYGRAPHICS
 70
     1
  9
$MEASUREMENT
 70
     0
  9
$CELWEIGHT
370
    -1
  9
$ENDCAPS
280
     0
  9
$JOINSTYLE
280
     0
  9
$LWDISPLAY
290
     0
  9
$INSUNITS
 70
     0
  9
$HYPERLINKBASE
  1

  9
$STYLESHEET
  1

  9
$XEDIT
290
     1
  9
$CEPSNTYPE
380
     0
  9
$PSTYLEMODE
290
     1
  9
$FINGERPRINTGUID
  2
{D32B404C-7634-417F-8CE6-BEE065289664}
  9
$VERSIONGUID
  2
{FAEB1C32-E019-11D5-929B-00C0DF256EC4}
  9
$EXTNAMES
290
     1
  9
$PSVPSCALE
 40
0.0
  9
$OLESTARTUP
290
     0
  9
$SORTENTS
280
   127
  9
$INDEXCTL
280
     0
  9
$HIDETEXT
280
     1
  9
$XCLIPFRAME
290
     0
  9
$HALOGAP
280
     0
  9
$OBSCOLOR
 70
   257
  9
$OBSLTYPE
280
     0
  9
$INTERSECTIONDISPLAY
280
     0
  9
$INTERSECTIONCOLOR
 70
   257
  9
$DIMASSOC
280
     2
  9
$PROJECTNAME
  1

  9
$CAMERADISPLAY
290
     0
  9
$LENSLENGTH
 40
50.0
  9
$CAMERAHEIGHT
 40
0.0
  9
$STEPSPERSEC
 40
2.0
  9
$STEPSIZE
 40
6.0
  9
$3DDWFPREC
 40
2.0
  9
$PSOLWIDTH
 40
0.25
  9
$PSOLHEIGHT
 40
4.0
  9
$LOFTANG1
 40
1.570796326794897
  9
$LOFTANG2
 40
1.570796326794897
  9
$LOFTMAG1
 40
0.0
  9
$LOFTMAG2
 40
0.0
  9
$LOFTPARAM
 70
     7
  9
$LOFTNORMALS
280
     1
  9
$LATITUDE
 40
37.795
  9
$LONGITUDE
 40
-122.394
  9
$NORTHDIRECTION
 40
0.0
  9
$TIMEZONE
 70
 -8000
  9
$LIGHTGLYPHDISPLAY
280
     1
  9
$TILEMODELIGHTSYNCH
280
     1
  9
$SOLIDHIST
280
     1
  9
$SHOWHIST
280
     1
  9
$DWFFRAME
280
     2
  9
$DGNFRAME
280
     2
  9
$REALWORLDSCALE
290
     1
  9
$INTERFERECOLOR
 62
   256
  9
$CSHADOW
280
     0
  9
$SHADOWPLANELOCATION
 40
0.0
  0
ENDSEC
  0
SECTION
  2
CLASSES
  0
CLASS
  1
SCALE
  2
AcDbScale
  3
ObjectDBX Classes
 90
     1153
 91
        4
280
     0
281
     0
  0
CLASS
  1
DICTIONARYVAR
  2
AcDbDictionaryVar
  3
ObjectDBX Classes
 90
        0
 91
        4
280
     0
281
     0
  0
ENDSEC
  0
SECTION
  2
TABLES
  0
TABLE
  2
VPORT
  5
8
330
0
100
AcDbSymbolTable
 70
     1
  0
VPORT
  5
1E
330
8
100
AcDbSymbolTableRecord
100
AcDbViewportTableRecord
  2
*ACTIVE
 70
     0
 10
0.0
 20
0.0
 11
1.0
 21
1.0
 12
2166.6461
 22
783.6796
 13
0.0
 23
0.0
 14
0.5
 24
0.5
 15
0.5
 25
0.5
 16
0.0
 26
0.0
 36
1.0
 17
0.0
 27
0.0
 37
0.0
 40
8.127
 41
1.7215
 42
50.0
 43
0.0
 44
0.0
 50
0.0
 51
0.0
 71
     0
 72
   100
 73
     1
 74
     1
 75
     0
 76
     0
 77
     0
 78
     0
281
     0
 65
     1
110
0.0
120
0.0
130
0.0
111
1.0
121
0.0
131
0.0
112
0.0
122
1.0
132
0.0
 79
     0
146
0.0
 60
     3
 61
     5
292
     1
282
     1
141
0.0
142
0.0
 63
   250
  0
ENDTAB
  0
TABLE
  2
LTYPE
  5
5
330
0
100
AcDbSymbolTable
 70
     1
  0
LTYPE
  5
12
330
5
100
AcDbSymbolTableRecord
100
AcDbLinetypeTableRecord
  2
BYBLOCK
 70
     0
  3

 72
    65
 73
     0
 40
0.0
  0
LTYPE
  5
13
330
5
100
AcDbSymbolTableRecord
100
AcDbLinetypeTableRecord
  2
BYLAYER
 70
     0
  3

 72
    65
 73
     0
 40
0.0
  0
LTYPE
  5
14
330
5
100
AcDbSymbolTableRecord
100
AcDbLinetypeTableRecord
  2
CONTINUOUS
 70
     0
  3
Solid line
 72
    65
 73
     0
 40
0.0
  0
ENDTAB
  0
TABLE
  2
LAYER
  5
2
330
0
100
AcDbSymbolTable
 70
     2
  0
LAYER
  5
E
330
2
100
AcDbSymbolTableRecord
100
AcDbLayerTableRecord
  2
0
 70
     0
 62
     7
  6
CONTINUOUS
370
    -3
390
0
347
0
  0
LAYER
  5
20
330
2
100
AcDbSymbolTableRecord
100
AcDbLayerTableRecord
  2
default
 70
     0
 62
     7
  6
CONTINUOUS
370
    -3
390
0
347
0
  0
ENDTAB
  0
TABLE
  2
STYLE
  5
3
330
0
100
AcDbSymbolTable
 70
     2
  0
STYLE
  5
F
330
3
100
AcDbSymbolTableRecord
100
AcDbTextStyleTableRecord
  2
STANDARD
 70
     0
 40
0.0
 41
1.0
 50
0.0
 71
     0
 42
0.2
  3
txt
  4

  0
STYLE
  5
21
330
3
100
AcDbSymbolTableRecord
100
AcDbTextStyleTableRecord
  2
Arial
 70
     0
 40
0.0
 41
1.0
 50
0.0
 71
     0
 42
0.2
  3
arial.ttf
  4

  0
ENDTAB
  0
TABLE
  2
VIEW
  5
6
330
0
100
AcDbSymbolTable
 70
     0
  0
ENDTAB
  0
TABLE
  2
UCS
  5
7
330
0
100
AcDbSymbolTable
 70
     0
  0
ENDTAB
  0
TABLE
  2
APPID
  5
9
330
0
100
AcDbSymbolTable
 70
     1
  0
APPID
  5
10
330
9
100
AcDbSymbolTableRecord
100
AcDbRegAppTableRecord
  2
ACAD
 70
     0
  0
ENDTAB
  0
TABLE
  2
DIMSTYLE
  5
A
330
0
100
AcDbSymbolTable
 70
     1
100
AcDbDimStyleTable
  0
DIMSTYLE
105
1D
330
A
100
AcDbSymbolTableRecord
100
AcDbDimStyleTableRecord
  2
STANDARD
 70
     0
340
F
  0
ENDTAB
  0
TABLE
  2
BLOCK_RECORD
  5
1
330
0
100
AcDbSymbolTable
 70
     0
  0
BLOCK_RECORD
  5
18
330
1
100
AcDbSymbolTableRecord
100
AcDbBlockTableRecord
  2
*MODEL_SPACE
340
399
 70
     0
280
     1
281
     0
  0
BLOCK_RECORD
  5
15
330
1
100
AcDbSymbolTableRecord
100
AcDbBlockTableRecord
  2
*PAPER_SPACE
340
39A
 70
     0
280
     1
281
     0
  0
ENDTAB
  0
ENDSEC
  0
SECTION
  2
BLOCKS
  0
BLOCK
  5
19
330
18
100
AcDbEntity
  8
0
100
AcDbBlockBegin
  2
*MODEL_SPACE
 70
     0
 10
0.0
 20
0.0
 30
0.0
  3
*MODEL_SPACE
  1
     0
  0
ENDBLK
  5
1A
330
18
100
AcDbEntity
  8
0
100
AcDbBlockEnd
  0
BLOCK
  5
16
330
15
100
AcDbEntity
 67
     1
  8
0
100
AcDbBlockBegin
  2
*PAPER_SPACE
 70
     0
 10
0.0
 20
0.0
 30
0.0
  3
*PAPER_SPACE
  1
     0
  0
ENDBLK
  5
17
330
15
100
AcDbEntity
 67
     1
  8
0
100
AcDbBlockEnd
  0
ENDSEC
  0
SECTION
  2
ENTITIES
  0
POINT
  5
22
330
18
100
AcDbEntity
  8
default
 62
     1
100
AcDbPoint
 10
0.0
 20
0.0
 30
0.0
  0
POINT
  5
23
330
18
100
AcDbEntity
  8
default
 62
     1
100
AcDbPoint
 10
90.0
 20
0.0
 30
0.0
  0
POINT
  5
24
330
18
100
AcDbEntity
  8
default
 62
     1
100
AcDbPoint
 10
160.0
 20
0.0
 30
0.0
  0
POINT
  5
25
330
18
100
AcDbEntity
  8
default
 62
     1
100
AcDbPoint
 10
890.0
 20
0.0
 30
0.0
  0
POINT
  5
26
330
18
100
AcDbEntity
  8
default
 62
     1
100
AcDbPoint
 10
820.0
 20
0.0
 30
0.0
  0
POINT
  5
27
330
18
100
AcDbEntity
  8
default
 62
     1
100
AcDbPoint
 10
120.0
 20
0.0
 30
0.0
  0
POINT
  5
28
330
18
100
AcDbEntity
  8
default
 62
     1
100
AcDbPoint
 10
780.0
 20
0.0
 30
0.0
  0
POINT
  5
29
330
18
100
AcDbEntity
  8
default
 62
     1
100
AcDbPoint
 10
160.0
 20
6.0
 30
0.0
  0
POINT
  5
2A
330
18
100
AcDbEntity
  8
default
 62
     1
100
AcDbPoint
 10
188.5
 20
14.0
 30
0.0
  0
POINT
  5
2B
330
18
100
AcDbEntity
  8
default
 62
     1
100
AcDbPoint
 10
180.5
 20
6.0
 30
0.0
  0
LINE
  5
2C
330
18
100
AcDbEntity
  8
default
100
AcDbLine
 10
160.0
 20
6.0
 30
0.0
 11
180.5
 21
6.0
 31
0.0
  0
LINE
  5
2D
330
18
100
AcDbEntity
  8
default
100
AcDbLine
 10
180.5
 20
6.0
 30
0.0
 11
188.5
 21
14.0
 31
0.0
  0
POINT
  5
2E
330
18
100
AcDbEntity
  8
default
 62
     1
100
AcDbPoint
 10
131.5
 20
14.0
 30
0.0
  0
POINT
  5
2F
330
18
100
AcDbEntity
  8
default
 62
     1
100
AcDbPoint
 10
139.5
 20
6.0
 30
0.0
  0
LINE
  5
30
330
18
100
AcDbEntity
  8
default
100
AcDbLine
 10
139.5
 20
6.0
 30
0.0
 11
160.0
 21
6.0
 31
0.0
  0
LINE
  5
31
330
18
100
AcDbEntity
  8
default
100
AcDbLine
 10
131.5
 20
14.0
 30
0.0
 11
139.5
 21
6.0
 31
0.0
  0
POINT
  5
32
330
18
100
AcDbEntity
  8
default
 62
     1
100
AcDbPoint
 10
160.0
 20
81.0
 30
0.0
  0
POINT
  5
33
330
18
100
AcDbEntity
  8
default
 62
     1
100
AcDbPoint
 10
90.0
 20
81.0
 30
0.0
  0
POINT
  5
34
330
18
100
AcDbEntity
  8
default
 62
     1
100
AcDbPoint
 10
230.0
 20
81.0
 30
0.0
  0
POINT
  5
35
330
18
100
AcDbEntity
  8
default
 62
     1
100
AcDbPoint
 10
90.0
 20
661.0
 30
0.0
  0
POINT
  5
36
330
18
100
AcDbEntity
  8
default
 62
     1
100
AcDbPoint
 10
230.0
 20
661.0
 30
0.0
  0
LINE
  5
37
330
18
100
AcDbEntity
  8
default
100
AcDbLine
 10
90.0
 20
81.0
 30
0.0
 11
90.0
 21
661.0
 31
0.0
  0
LINE
  5
38
330
18
100
AcDbEntity
  8
default
100
AcDbLine
 10
230.0
 20
81.0
 30
0.0
 11
230.0
 21
661.0
 31
0.0
  0
LINE
  5
39
330
18
100
AcDbEntity
  8
default
100
AcDbLine
 10
90.0
 20
81.0
 30
0.0
 11
230.0
 21
81.0
 31
0.0
  0
POINT
  5
3A
330
18
100
AcDbEntity
  8
default
 62
     1
100
AcDbPoint
 10
130.193
 20
81.0
 30
0.0
  0
POINT
  5
3B
330
18
100
AcDbEntity
  8
default
 62
     1
100
AcDbPoint
 10
189.807
 20
81.0
 30
0.0
  0
ELLIPSE
  5
3C
330
18
100
AcDbEntity
  8
default
100
AcDbEllipse
 10
141.793
 20
9.1991
 30
0.0
 11
-6.3027
 21
1.8974
 31
0.0
210
0.0
220
0.0
230
1.0
 40
0.226934
 41
0.629587
 42
2.200383
  0
ELLIPSE
  5
3D
330
18
100
AcDbEntity
  8
default
100
AcDbEllipse
 10
154.2587
 20
6.9092
 30
0.0
 11
-10.7616
 21
0.5016000000000002
 31
0.0
210
0.0
220
0.0
230
0.9999999999999999
 40
0.07048
 41
0.566018
 42
2.136815
  0
ELLIPSE
  5
3E
330
18
100
AcDbEntity
  8
default
100
AcDbEllipse
 10
134.6676
 20
11.7073
 30
0.0
 11
-3.6253
 21
2.9117
 31
0.0
210
0.0
220
0.0
230
1.0
 40
0.077659
 41
0.573518
 42
2.144314
  0
ELLIPSE
  5
3F
330
18
100
AcDbEntity
  8
default
100
AcDbEllipse
 10
130.7312
 20
17.5328
 30
0.0
 11
-0.4379000000000001
 21
2.633100000000001
 31
0.0
210
0.0
220
0.0
230
0.9999999999999998
 40
0.115236
 41
0.601741
 42
2.172537
  0
ELLIPSE
  5
40
330
18
100
AcDbEntity
  8
default
100
AcDbEllipse
 10
131.2607
 20
15.0771
 30
0.0
 11
-0.5412
 21
1.416
 31
0.0
210
0.0
220
0.0
230
0.9999999999999999
 40
0.15311
 41
0.803778
 42
2.374574
  0
LINE
  5
41
330
18
100
AcDbEntity
  8
default
100
AcDbLine
 10
130.193
 20
19.6746
 30
0.0
 11
130.193
 21
81.0
 31
0.0
  0
POINT
  5
42
330
18
100
AcDbEntity
  8
default
 62
     1
100
AcDbPoint
 10
188.5
 20
14.0
 30
0.0
  0
POINT
  5
43
330
18
100
AcDbEntity
  8
default
 62
     1
100
AcDbPoint
 10
180.5
 20
6.0
 30
0.0
  0
LINE
  5
44
330
18
100
AcDbEntity
  8
default
100
AcDbLine
 10
160.0
 20
6.0
 30
0.0
 11
180.5
 21
6.0
 31
0.0
  0
LINE
  5
45
330
18
100
AcDbEntity
  8
default
100
AcDbLine
 10
180.5
 20
6.0
 30
0.0
 11
188.5
 21
14.0
 31
0.0
  0
POINT
  5
46
330
18
100
AcDbEntity
  8
default
 62
     1
100
AcDbPoint
 10
184.5
 20
10.0
 30
0.0
  0
ELLIPSE
  5
47
330
18
100
AcDbEntity
  8
default
100
AcDbEllipse
 10
178.207
 20
9.1991
 30
0.0
 11
6.3027
 21
1.8974
 31
0.0
210
0.0
220
0.0
230
1.0
 40
0.226934
 41
4.08279
 42
5.653587
  0
ELLIPSE
  5
48
330
18
100
AcDbEntity
  8
default
100
AcDbEllipse
 10
165.7413
 20
6.9092
 30
0.0
 11
10.7616
 21
0.5016000000000002
 31
0.0
210
0.0
220
0.0
230
0.9999999999999999
 40
0.07048
 41
4.146397
 42
5.717193
  0
ELLIPSE
  5
49
330
18
100
AcDbEntity
  8
default
100
AcDbEllipse
 10
185.3324
 20
11.7073
 30
0.0
 11
3.6253
 21
2.9117
 31
0.0
210
0.0
220
0.0
230
1.0
 40
0.077659
 41
4.138696
 42
5.709492
  0
ELLIPSE
  5
4A
330
18
100
AcDbEntity
  8
default
100
AcDbEllipse
 10
189.2688
 20
17.5328
 30
0.0
 11
0.4379000000000001
 21
2.633100000000001
 31
0.0
210
0.0
220
0.0
230
0.9999999999999998
 40
0.115236
 41
4.110275
 42
5.681071
  0
ELLIPSE
  5
4B
330
18
100
AcDbEntity
  8
default
100
AcDbEllipse
 10
188.7393
 20
15.0771
 30
0.0
 11
0.5412
 21
1.416
 31
0.0
210
0.0
220
0.0
230
0.9999999999999999
 40
0.15311
 41
3.90819
 42
5.478987
  0
LINE
  5
4C
330
18
100
AcDbEntity
  8
default
100
AcDbLine
 10
189.807
 20
19.6746
 30
0.0
 11
189.807
 21
81.0
 31
0.0
  0
POINT
  5
4D
330
18
100
AcDbEntity
  8
default
 62
     1
100
AcDbPoint
 10
490.0
 20
0.0
 30
0.0
  0
POINT
  5
4E
330
18
100
AcDbEntity
  8
default
 62
     1
100
AcDbPoint
 10
0.0
 20
712.5
 30
0.0
  0
POINT
  5
4F
330
18
100
AcDbEntity
  8
default
 62
     1
100
AcDbPoint
 10
135.0
 20
710.0
 30
0.0
  0
POINT
  5
50
330
18
100
AcDbEntity
  8
default
 62
     1
100
AcDbPoint
 10
185.0
 20
710.0
 30
0.0
  0
POINT
  5
51
330
18
100
AcDbEntity
  8
default
 62
     1
100
AcDbPoint
 10
130.0
 20
710.0
 30
0.0
  0
POINT
  5
52
330
18
100
AcDbEntity
  8
default
 62
     1
100
AcDbPoint
 10
190.0
 20
710.0
 30
0.0
  0
CIRCLE
  5
53
330
18
100
AcDbEntity
  8
default
100
AcDbCircle
 10
132.5
 20
710.0
 30
0.0
 40
2.5
  0
CIRCLE
  5
54
330
18
100
AcDbEntity
  8
default
100
AcDbCircle
 10
187.5
 20
710.0
 30
0.0
 40
2.5
  0
POINT
  5
55
330
18
100
AcDbEntity
  8
default
 62
     1
100
AcDbPoint
 10
820.0
 20
6.0
 30
0.0
  0
POINT
  5
56
330
18
100
AcDbEntity
  8
default
 62
     1
100
AcDbPoint
 10
791.5
 20
14.0
 30
0.0
  0
POINT
  5
57
330
18
100
AcDbEntity
  8
default
 62
     1
100
AcDbPoint
 10
799.5
 20
6.0
 30
0.0
  0
LINE
  5
58
330
18
100
AcDbEntity
  8
default
100
AcDbLine
 10
799.5
 20
6.0
 30
0.0
 11
820.0
 21
6.0
 31
0.0
  0
LINE
  5
59
330
18
100
AcDbEntity
  8
default
100
AcDbLine
 10
791.5
 20
14.0
 30
0.0
 11
799.5
 21
6.0
 31
0.0
  0
POINT
  5
5A
330
18
100
AcDbEntity
  8
default
 62
     1
100
AcDbPoint
 10
848.5
 20
14.0
 30
0.0
  0
POINT
  5
5B
330
18
100
AcDbEntity
  8
default
 62
     1
100
AcDbPoint
 10
840.5
 20
6.0
 30
0.0
  0
LINE
  5
5C
330
18
100
AcDbEntity
  8
default
100
AcDbLine
 10
820.0
 20
6.0
 30
0.0
 11
840.5
 21
6.0
 31
0.0
  0
LINE
  5
5D
330
18
100
AcDbEntity
  8
default
100
AcDbLine
 10
840.5
 20
6.0
 30
0.0
 11
848.5
 21
14.0
 31
0.0
  0
POINT
  5
5E
330
18
100
AcDbEntity
  8
default
 62
     1
100
AcDbPoint
 10
820.0
 20
81.0
 30
0.0
  0
POINT
  5
5F
330
18
100
AcDbEntity
  8
default
 62
     1
100
AcDbPoint
 10
890.0
 20
81.0
 30
0.0
  0
POINT
  5
60
330
18
100
AcDbEntity
  8
default
 62
     1
100
AcDbPoint
 10
750.0
 20
81.0
 30
0.0
  0
POINT
  5
61
330
18
100
AcDbEntity
  8
default
 62
     1
100
AcDbPoint
 10
890.0
 20
661.0
 30
0.0
  0
POINT
  5
62
330
18
100
AcDbEntity
  8
default
 62
     1
100
AcDbPoint
 10
750.0
 20
661.0
 30
0.0
  0
LINE
  5
63
330
18
100
AcDbEntity
  8
default
100
AcDbLine
 10
890.0
 20
81.0
 30
0.0
 11
890.0
 21
661.0
 31
0.0
  0
LINE
  5
64
330
18
100
AcDbEntity
  8
default
100
AcDbLine
 10
750.0
 20
81.0
 30
0.0
 11
750.0
 21
661.0
 31
0.0
  0
LINE
  5
65
330
18
100
AcDbEntity
  8
default
100
AcDbLine
 10
750.0
 20
81.0
 30
0.0
 11
890.0
 21
81.0
 31
0.0
  0
POINT
  5
66
330
18
100
AcDbEntity
  8
default
 62
     1
100
AcDbPoint
 10
849.807
 20
81.0
 30
0.0
  0
POINT
  5
67
330
18
100
AcDbEntity
  8
default
 62
     1
100
AcDbPoint
 10
790.193
 20
81.0
 30
0.0
  0
POINT
  5
68
330
18
100
AcDbEntity
  8
default
 62
     1
100
AcDbPoint
 10
844.5
 20
10.0
 30
0.0
  0
ELLIPSE
  5
69
330
18
100
AcDbEntity
  8
default
100
AcDbEllipse
 10
838.207
 20
9.1991
 30
0.0
 11
6.3027
 21
1.8974
 31
0.0
210
0.0
220
0.0
230
1.0
 40
0.226934
 41
4.08279
 42
5.653587
  0
ELLIPSE
  5
6A
330
18
100
AcDbEntity
  8
default
100
AcDbEllipse
 10
825.7413
 20
6.9092
 30
0.0
 11
10.7616
 21
0.5016000000000002
 31
0.0
210
0.0
220
0.0
230
0.9999999999999999
 40
0.07048
 41
4.146397
 42
5.717193
  0
ELLIPSE
  5
6B
330
18
100
AcDbEntity
  8
default
100
AcDbEllipse
 10
845.3324
 20
11.7073
 30
0.0
 11
3.6253
 21
2.9117
 31
0.0
210
0.0
220
0.0
230
1.0
 40
0.077659
 41
4.138696
 42
5.709492
  0
ELLIPSE
  5
6C
330
18
100
AcDbEntity
  8
default
100
AcDbEllipse
 10
849.2688
 20
17.5328
 30
0.0
 11
0.4379000000000001
 21
2.633100000000001
 31
0.0
210
0.0
220
0.0
230
0.9999999999999998
 40
0.115236
 41
4.110275
 42
5.681071
  0
ELLIPSE
  5
6D
330
18
100
AcDbEntity
  8
default
100
AcDbEllipse
 10
848.7393
 20
15.0771
 30
0.0
 11
0.5412
 21
1.416
 31
0.0
210
0.0
220
0.0
230
0.9999999999999999
 40
0.15311
 41
3.90819
 42
5.478987
  0
LINE
  5
6E
330
18
100
AcDbEntity
  8
default
100
AcDbLine
 10
849.807
 20
19.6746
 30
0.0
 11
849.807
 21
81.0
 31
0.0
  0
POINT
  5
6F
330
18
100
AcDbEntity
  8
default
 62
     1
100
AcDbPoint
 10
791.5
 20
14.0
 30
0.0
  0
POINT
  5
70
330
18
100
AcDbEntity
  8
default
 62
     1
100
AcDbPoint
 10
799.5
 20
6.0
 30
0.0
  0
LINE
  5
71
330
18
100
AcDbEntity
  8
default
100
AcDbLine
 10
799.5
 20
6.0
 30
0.0
 11
820.0
 21
6.0
 31
0.0
  0
LINE
  5
72
330
18
100
AcDbEntity
  8
default
100
AcDbLine
 10
791.5
 20
14.0
 30
0.0
 11
799.5
 21
6.0
 31
0.0
  0
POINT
  5
73
330
18
100
AcDbEntity
  8
default
 62
     1
100
AcDbPoint
 10
795.5
 20
10.0
 30
0.0
  0
ELLIPSE
  5
74
330
18
100
AcDbEntity
  8
default
100
AcDbEllipse
 10
801.793
 20
9.1991
 30
0.0
 11
-6.3027
 21
1.8974
 31
0.0
210
0.0
220
0.0
230
1.0
 40
0.226934
 41
0.629587
 42
2.200383
  0
ELLIPSE
  5
75
330
18
100
AcDbEntity
  8
default
100
AcDbEllipse
 10
814.2587
 20
6.9092
 30
0.0
 11
-10.7616
 21
0.5016000000000002
 31
0.0
210
0.0
220
0.0
230
0.9999999999999999
 40
0.07048
 41
0.566018
 42
2.136815
  0
ELLIPSE
  5
76
330
18
100
AcDbEntity
  8
default
100
AcDbEllipse
 10
794.6676
 20
11.7073
 30
0.0
 11
-3.6253
 21
2.9117
 31
0.0
210
0.0
220
0.0
230
1.0
 40
0.077659
 41
0.573518
 42
2.144314
  0
ELLIPSE
  5
77
330
18
100
AcDbEntity
  8
default
100
AcDbEllipse
 10
790.7312
 20
17.5328
 30
0.0
 11
-0.4379000000000001
 21
2.633100000000001
 31
0.0
210
0.0
220
0.0
230
0.9999999999999998
 40
0.115236
 41
0.601741
 42
2.172537
  0
ELLIPSE
  5
78
330
18
100
AcDbEntity
  8
default
100
AcDbEllipse
 10
791.2607
 20
15.0771
 30
0.0
 11
-0.5412
 21
1.416
 31
0.0
210
0.0
220
0.0
230
0.9999999999999999
 40
0.15311
 41
0.803778
 42
2.374574
  0
LINE
  5
79
330
18
100
AcDbEntity
  8
default
100
AcDbLine
 10
790.193
 20
19.6746
 30
0.0
 11
790.193
 21
81.0
 31
0.0
  0
POINT
  5
7A
330
18
100
AcDbEntity
  8
default
 62
     1
100
AcDbPoint
 10
980.0
 20
712.5
 30
0.0
  0
POINT
  5
7B
330
18
100
AcDbEntity
  8
default
 62
     1
100
AcDbPoint
 10
860.0
 20
710.0
 30
0.0
  0
POINT
  5
7C
330
18
100
AcDbEntity
  8
default
 62
     1
100
AcDbPoint
 10
780.0
 20
710.0
 30
0.0
  0
POINT
  5
7D
330
18
100
AcDbEntity
  8
default
 62
     1
100
AcDbPoint
 10
780.0
 20
700.0
 30
0.0
  0
POINT
  5
7E
330
18
100
AcDbEntity
  8
default
 62
     1
100
AcDbPoint
 10
845.0
 20
710.0
 30
0.0
  0
POINT
  5
7F
330
18
100
AcDbEntity
  8
default
 62
     1
100
AcDbPoint
 10
795.0
 20
710.0
 30
0.0
  0
POINT
  5
80
330
18
100
AcDbEntity
  8
default
 62
     1
100
AcDbPoint
 10
850.0
 20
710.0
 30
0.0
  0
POINT
  5
81
330
18
100
AcDbEntity
  8
default
 62
     1
100
AcDbPoint
 10
790.0
 20
710.0
 30
0.0
  0
CIRCLE
  5
82
330
18
100
AcDbEntity
  8
default
100
AcDbCircle
 10
847.5
 20
710.0
 30
0.0
 40
2.5
  0
CIRCLE
  5
83
330
18
100
AcDbEntity
  8
default
100
AcDbCircle
 10
792.5
 20
710.0
 30
0.0
 40
2.5
  0
POINT
  5
84
330
18
100
AcDbEntity
  8
default
 62
     1
100
AcDbPoint
 10
886.0
 20
661.0
 30
0.0
  0
LINE
  5
85
330
18
100
AcDbEntity
  8
default
100
AcDbLine
 10
886.0
 20
661.0
 30
0.0
 11
886.0
 21
665.0
 31
0.0
  0
POINT
  5
86
330
18
100
AcDbEntity
  8
default
 62
     1
100
AcDbPoint
 10
754.0
 20
661.0
 30
0.0
  0
LINE
  5
87
330
18
100
AcDbEntity
  8
default
100
AcDbLine
 10
754.0
 20
661.0
 30
0.0
 11
754.0
 21
665.0
 31
0.0
  0
LINE
  5
88
330
18
100
AcDbEntity
  8
default
100
AcDbLine
 10
490.0
 20
0.0
 30
0.0
 11
980.0
 21
0.0
 31
0.0
  0
POINT
  5
89
330
18
100
AcDbEntity
  8
default
 62
     1
100
AcDbPoint
 10
0.0
 20
822.5
 30
0.0
  0
POINT
  5
8A
330
18
100
AcDbEntity
  8
default
 62
     1
100
AcDbPoint
 10
980.0
 20
822.5
 30
0.0
  0
LINE
  5
8B
330
18
100
AcDbEntity
  8
default
100
AcDbLine
 10
980.0
 20
712.5
 30
0.0
 11
980.0
 21
822.5
 31
0.0
  0
POINT
  5
8C
330
18
100
AcDbEntity
  8
default
 62
     1
100
AcDbPoint
 10
160.0
 20
561.0
 30
0.0
  0
POINT
  5
8D
330
18
100
AcDbEntity
  8
default
 62
     1
100
AcDbPoint
 10
160.0
 20
511.0
 30
0.0
  0
POINT
  5
8E
330
18
100
AcDbEntity
  8
default
 62
     1
100
AcDbPoint
 10
160.0
 20
411.0
 30
0.0
  0
POINT
  5
8F
330
18
100
AcDbEntity
  8
default
 62
     1
100
AcDbPoint
 10
160.0
 20
881.0
 30
0.0
  0
POINT
  5
90
330
18
100
AcDbEntity
  8
default
 62
     1
100
AcDbPoint
 10
820.0
 20
881.0
 30
0.0
  0
POINT
  5
91
330
18
100
AcDbEntity
  8
default
 62
     1
100
AcDbPoint
 10
490.0
 20
881.0
 30
0.0
  0
POINT
  5
92
330
18
100
AcDbEntity
  8
default
 62
     1
100
AcDbPoint
 10
0.0
 20
881.0
 30
0.0
  0
POINT
  5
93
330
18
100
AcDbEntity
  8
default
 62
     1
100
AcDbPoint
 10
0.0
 20
861.0
 30
0.0
  0
LINE
  5
94
330
18
100
AcDbEntity
  8
default
100
AcDbLine
 10
0.0
 20
861.0
 30
0.0
 11
0.0
 21
881.0
 31
0.0
  0
LINE
  5
95
330
18
100
AcDbEntity
  8
default
100
AcDbLine
 10
980.0
 20
861.0
 30
0.0
 11
980.0
 21
881.0
 31
0.0
  0
LINE
  5
96
330
18
100
AcDbEntity
  8
default
100
AcDbLine
 10
0.0
 20
881.0
 30
0.0
 11
980.0
 21
881.0
 31
0.0
  0
LINE
  5
97
330
18
100
AcDbEntity
  8
default
100
AcDbLine
 10
0.0
 20
861.0
 30
0.0
 11
980.0
 21
861.0
 31
0.0
  0
POINT
  5
98
330
18
100
AcDbEntity
  8
default
 62
     1
100
AcDbPoint
 10
140.0
 20
861.0
 30
0.0
  0
POINT
  5
99
330
18
100
AcDbEntity
  8
default
 62
     1
100
AcDbPoint
 10
180.0
 20
861.0
 30
0.0
  0
LINE
  5
9A
330
18
100
AcDbEntity
  8
default
100
AcDbLine
 10
140.0
 20
281.0
 30
0.0
 11
140.0
 21
861.0
 31
0.0
  0
LINE
  5
9B
330
18
100
AcDbEntity
  8
default
100
AcDbLine
 10
180.0
 20
281.0
 30
0.0
 11
180.0
 21
861.0
 31
0.0
  0
LINE
  5
9C
330
18
100
AcDbEntity
  8
default
100
AcDbLine
 10
140.0
 20
276.0
 30
0.0
 11
140.0
 21
281.0
 31
0.0
  0
LINE
  5
9D
330
18
100
AcDbEntity
  8
default
100
AcDbLine
 10
180.0
 20
276.0
 30
0.0
 11
180.0
 21
281.0
 31
0.0
  0
LINE
  5
9E
330
18
100
AcDbEntity
  8
default
100
AcDbLine
 10
140.0
 20
281.0
 30
0.0
 11
180.0
 21
281.0
 31
0.0
  0
LINE
  5
9F
330
18
100
AcDbEntity
  8
default
100
AcDbLine
 10
140.0
 20
276.0
 30
0.0
 11
180.0
 21
276.0
 31
0.0
  0
POINT
  5
A0
330
18
100
AcDbEntity
  8
default
 62
     1
100
AcDbPoint
 10
160.0
 20
861.0
 30
0.0
  0
LINE
  5
A1
330
18
100
AcDbEntity
  8
default
100
AcDbLine
 10
0.0
 20
861.0
 30
0.0
 11
0.0
 21
881.0
 31
0.0
  0
LINE
  5
A2
330
18
100
AcDbEntity
  8
default
100
AcDbLine
 10
980.0
 20
861.0
 30
0.0
 11
980.0
 21
881.0
 31
0.0
  0
LINE
  5
A3
330
18
100
AcDbEntity
  8
default
100
AcDbLine
 10
0.0
 20
881.0
 30
0.0
 11
980.0
 21
881.0
 31
0.0
  0
LINE
  5
A4
330
18
100
AcDbEntity
  8
default
100
AcDbLine
 10
0.0
 20
861.0
 30
0.0
 11
980.0
 21
861.0
 31
0.0
  0
LINE
  5
A5
330
18
100
AcDbEntity
  8
default
100
AcDbLine
 10
840.0
 20
281.0
 30
0.0
 11
840.0
 21
861.0
 31
0.0
  0
LINE
  5
A6
330
18
100
AcDbEntity
  8
default
100
AcDbLine
 10
800.0
 20
281.0
 30
0.0
 11
800.0
 21
861.0
 31
0.0
  0
LINE
  5
A7
330
18
100
AcDbEntity
  8
default
100
AcDbLine
 10
800.0
 20
276.0
 30
0.0
 11
800.0
 21
281.0
 31
0.0
  0
LINE
  5
A8
330
18
100
AcDbEntity
  8
default
100
AcDbLine
 10
840.0
 20
276.0
 30
0.0
 11
840.0
 21
281.0
 31
0.0
  0
LINE
  5
A9
330
18
100
AcDbEntity
  8
default
100
AcDbLine
 10
800.0
 20
281.0
 30
0.0
 11
840.0
 21
281.0
 31
0.0
  0
LINE
  5
AA
330
18
100
AcDbEntity
  8
default
100
AcDbLine
 10
800.0
 20
276.0
 30
0.0
 11
840.0
 21
276.0
 31
0.0
  0
LINE
  5
AB
330
18
100
AcDbEntity
  8
default
100
AcDbLine
 10
0.0
 20
712.5
 30
0.0
 11
0.0
 21
822.5
 31
0.0
  0
POINT
  5
AC
330
18
100
AcDbEntity
  8
default
 62
     1
100
AcDbPoint
 10
742.5
 20
665.0
 30
0.0
  0
POINT
  5
AD
330
18
100
AcDbEntity
  8
default
 62
     1
100
AcDbPoint
 10
742.5
 20
677.0
 30
0.0
  0
POINT
  5
AE
330
18
100
AcDbEntity
  8
default
 62
     1
100
AcDbPoint
 10
897.5
 20
677.0
 30
0.0
  0
POINT
  5
AF
330
18
100
AcDbEntity
  8
default
 62
     1
100
AcDbPoint
 10
897.5
 20
665.0
 30
0.0
  0
POINT
  5
B0
330
18
100
AcDbEntity
  8
default
 62
     1
100
AcDbPoint
 10
745.0
 20
690.0
 30
0.0
  0
POINT
  5
B1
330
18
100
AcDbEntity
  8
default
 62
     1
100
AcDbPoint
 10
895.0
 20
690.0
 30
0.0
  0
POINT
  5
B2
330
18
100
AcDbEntity
  8
default
 62
     1
100
AcDbPoint
 10
895.0
 20
677.0
 30
0.0
  0
POINT
  5
B3
330
18
100
AcDbEntity
  8
default
 62
     1
100
AcDbPoint
 10
800.0
 20
677.0
 30
0.0
  0
POINT
  5
B4
330
18
100
AcDbEntity
  8
default
 62
     1
100
AcDbPoint
 10
800.0
 20
690.0
 30
0.0
  0
POINT
  5
B5
330
18
100
AcDbEntity
  8
default
 62
     1
100
AcDbPoint
 10
745.0
 20
677.0
 30
0.0
  0
POINT
  5
B6
330
18
100
AcDbEntity
  8
default
 62
     1
100
AcDbPoint
 10
800.0
 20
665.0
 30
0.0
  0
POINT
  5
B7
330
18
100
AcDbEntity
  8
default
 62
     1
100
AcDbPoint
 10
840.0
 20
665.0
 30
0.0
  0
LINE
  5
B8
330
18
100
AcDbEntity
  8
default
100
AcDbLine
 10
780.0
 20
710.0
 30
0.0
 11
800.0
 21
710.0
 31
0.0
  0
LINE
  5
B9
330
18
100
AcDbEntity
  8
default
100
AcDbLine
 10
840.0
 20
710.0
 30
0.0
 11
860.0
 21
710.0
 31
0.0
  0
LINE
  5
BA
330
18
100
AcDbEntity
  8
default
100
AcDbLine
 10
780.0
 20
700.0
 30
0.0
 11
800.0
 21
700.0
 31
0.0
  0
LINE
  5
BB
330
18
100
AcDbEntity
  8
default
100
AcDbLine
 10
780.0
 20
700.0
 30
0.0
 11
780.0
 21
710.0
 31
0.0
  0
POINT
  5
BC
330
18
100
AcDbEntity
  8
default
 62
     1
100
AcDbPoint
 10
860.0
 20
700.0
 30
0.0
  0
LINE
  5
BD
330
18
100
AcDbEntity
  8
default
100
AcDbLine
 10
860.0
 20
700.0
 30
0.0
 11
860.0
 21
710.0
 31
0.0
  0
LINE
  5
BE
330
18
100
AcDbEntity
  8
default
100
AcDbLine
 10
840.0
 20
700.0
 30
0.0
 11
860.0
 21
700.0
 31
0.0
  0
LINE
  5
BF
330
18
100
AcDbEntity
  8
default
100
AcDbLine
 10
742.5
 20
665.0
 30
0.0
 11
800.0
 21
665.0
 31
0.0
  0
LINE
  5
C0
330
18
100
AcDbEntity
  8
default
100
AcDbLine
 10
840.0
 20
665.0
 30
0.0
 11
897.5
 21
665.0
 31
0.0
  0
LINE
  5
C1
330
18
100
AcDbEntity
  8
default
100
AcDbLine
 10
750.0
 20
661.0
 30
0.0
 11
800.0
 21
661.0
 31
0.0
  0
LINE
  5
C2
330
18
100
AcDbEntity
  8
default
100
AcDbLine
 10
840.0
 20
661.0
 30
0.0
 11
890.0
 21
661.0
 31
0.0
  0
LINE
  5
C3
330
18
100
AcDbEntity
  8
default
100
AcDbLine
 10
742.5
 20
677.0
 30
0.0
 11
800.0
 21
677.0
 31
0.0
  0
LINE
  5
C4
330
18
100
AcDbEntity
  8
default
100
AcDbLine
 10
840.0
 20
677.0
 30
0.0
 11
897.5
 21
677.0
 31
0.0
  0
LINE
  5
C5
330
18
100
AcDbEntity
  8
default
100
AcDbLine
 10
745.0
 20
677.0
 30
0.0
 11
745.0
 21
690.0
 31
0.0
  0
LINE
  5
C6
330
18
100
AcDbEntity
  8
default
100
AcDbLine
 10
895.0
 20
677.0
 30
0.0
 11
895.0
 21
690.0
 31
0.0
  0
LINE
  5
C7
330
18
100
AcDbEntity
  8
default
100
AcDbLine
 10
745.0
 20
690.0
 30
0.0
 11
800.0
 21
690.0
 31
0.0
  0
LINE
  5
C8
330
18
100
AcDbEntity
  8
default
100
AcDbLine
 10
840.0
 20
690.0
 30
0.0
 11
895.0
 21
690.0
 31
0.0
  0
LINE
  5
C9
330
18
100
AcDbEntity
  8
default
100
AcDbLine
 10
742.5
 20
665.0
 30
0.0
 11
742.5
 21
677.0
 31
0.0
  0
LINE
  5
CA
330
18
100
AcDbEntity
  8
default
100
AcDbLine
 10
897.5
 20
665.0
 30
0.0
 11
897.5
 21
677.0
 31
0.0
  0
POINT
  5
CB
330
18
100
AcDbEntity
  8
default
 62
     1
100
AcDbPoint
 10
800.0
 20
712.5
 30
0.0
  0
POINT
  5
CC
330
18
100
AcDbEntity
  8
default
 62
     1
100
AcDbPoint
 10
840.0
 20
712.5
 30
0.0
  0
LINE
  5
CD
330
18
100
AcDbEntity
  8
default
100
AcDbLine
 10
840.0
 20
712.5
 30
0.0
 11
980.0
 21
712.5
 31
0.0
  0
LINE
  5
CE
330
18
100
AcDbEntity
  8
default
100
AcDbLine
 10
180.0
 20
712.5
 30
0.0
 11
800.0
 21
712.5
 31
0.0
  0
POINT
  5
CF
330
18
100
AcDbEntity
  8
default
 62
     1
100
AcDbPoint
 10
800.0
 20
822.5
 30
0.0
  0
POINT
  5
D0
330
18
100
AcDbEntity
  8
default
 62
     1
100
AcDbPoint
 10
840.0
 20
822.5
 30
0.0
  0
LINE
  5
D1
330
18
100
AcDbEntity
  8
default
100
AcDbLine
 10
840.0
 20
822.5
 30
0.0
 11
980.0
 21
822.5
 31
0.0
  0
LINE
  5
D2
330
18
100
AcDbEntity
  8
default
100
AcDbLine
 10
180.0
 20
822.5
 30
0.0
 11
800.0
 21
822.5
 31
0.0
  0
POINT
  5
D3
330
18
100
AcDbEntity
  8
default
 62
     1
100
AcDbPoint
 10
90.0
 20
661.0
 30
0.0
  0
POINT
  5
D4
330
18
100
AcDbEntity
  8
default
 62
     1
100
AcDbPoint
 10
230.0
 20
661.0
 30
0.0
  0
LINE
  5
D5
330
18
100
AcDbEntity
  8
default
100
AcDbLine
 10
90.0
 20
81.0
 30
0.0
 11
90.0
 21
661.0
 31
0.0
  0
LINE
  5
D6
330
18
100
AcDbEntity
  8
default
100
AcDbLine
 10
230.0
 20
81.0
 30
0.0
 11
230.0
 21
661.0
 31
0.0
  0
POINT
  5
D7
330
18
100
AcDbEntity
  8
default
 62
     1
100
AcDbPoint
 10
0.0
 20
712.5
 30
0.0
  0
POINT
  5
D8
330
18
100
AcDbEntity
  8
default
 62
     1
100
AcDbPoint
 10
120.0
 20
710.0
 30
0.0
  0
POINT
  5
D9
330
18
100
AcDbEntity
  8
default
 62
     1
100
AcDbPoint
 10
200.0
 20
710.0
 30
0.0
  0
POINT
  5
DA
330
18
100
AcDbEntity
  8
default
 62
     1
100
AcDbPoint
 10
200.0
 20
700.0
 30
0.0
  0
POINT
  5
DB
330
18
100
AcDbEntity
  8
default
 62
     1
100
AcDbPoint
 10
135.0
 20
710.0
 30
0.0
  0
POINT
  5
DC
330
18
100
AcDbEntity
  8
default
 62
     1
100
AcDbPoint
 10
185.0
 20
710.0
 30
0.0
  0
POINT
  5
DD
330
18
100
AcDbEntity
  8
default
 62
     1
100
AcDbPoint
 10
130.0
 20
710.0
 30
0.0
  0
POINT
  5
DE
330
18
100
AcDbEntity
  8
default
 62
     1
100
AcDbPoint
 10
190.0
 20
710.0
 30
0.0
  0
CIRCLE
  5
DF
330
18
100
AcDbEntity
  8
default
100
AcDbCircle
 10
132.5
 20
710.0
 30
0.0
 40
2.5
  0
CIRCLE
  5
E0
330
18
100
AcDbEntity
  8
default
100
AcDbCircle
 10
187.5
 20
710.0
 30
0.0
 40
2.5
  0
POINT
  5
E1
330
18
100
AcDbEntity
  8
default
 62
     1
100
AcDbPoint
 10
94.0
 20
661.0
 30
0.0
  0
LINE
  5
E2
330
18
100
AcDbEntity
  8
default
100
AcDbLine
 10
94.0
 20
661.0
 30
0.0
 11
94.0
 21
665.0
 31
0.0
  0
POINT
  5
E3
330
18
100
AcDbEntity
  8
default
 62
     1
100
AcDbPoint
 10
226.0
 20
661.0
 30
0.0
  0
LINE
  5
E4
330
18
100
AcDbEntity
  8
default
100
AcDbLine
 10
226.0
 20
661.0
 30
0.0
 11
226.0
 21
665.0
 31
0.0
  0
POINT
  5
E5
330
18
100
AcDbEntity
  8
default
 62
     1
100
AcDbPoint
 10
0.0
 20
822.5
 30
0.0
  0
LINE
  5
E6
330
18
100
AcDbEntity
  8
default
100
AcDbLine
 10
0.0
 20
712.5
 30
0.0
 11
0.0
 21
822.5
 31
0.0
  0
POINT
  5
E7
330
18
100
AcDbEntity
  8
default
 62
     1
100
AcDbPoint
 10
160.0
 20
561.0
 30
0.0
  0
POINT
  5
E8
330
18
100
AcDbEntity
  8
default
 62
     1
100
AcDbPoint
 10
160.0
 20
511.0
 30
0.0
  0
POINT
  5
E9
330
18
100
AcDbEntity
  8
default
 62
     1
100
AcDbPoint
 10
160.0
 20
411.0
 30
0.0
  0
POINT
  5
EA
330
18
100
AcDbEntity
  8
default
 62
     1
100
AcDbPoint
 10
160.0
 20
881.0
 30
0.0
  0
LINE
  5
EB
330
18
100
AcDbEntity
  8
default
100
AcDbLine
 10
0.0
 20
861.0
 30
0.0
 11
0.0
 21
881.0
 31
0.0
  0
LINE
  5
EC
330
18
100
AcDbEntity
  8
default
100
AcDbLine
 10
980.0
 20
861.0
 30
0.0
 11
980.0
 21
881.0
 31
0.0
  0
LINE
  5
ED
330
18
100
AcDbEntity
  8
default
100
AcDbLine
 10
0.0
 20
881.0
 30
0.0
 11
980.0
 21
881.0
 31
0.0
  0
LINE
  5
EE
330
18
100
AcDbEntity
  8
default
100
AcDbLine
 10
0.0
 20
861.0
 30
0.0
 11
980.0
 21
861.0
 31
0.0
  0
LINE
  5
EF
330
18
100
AcDbEntity
  8
default
100
AcDbLine
 10
0.0
 20
861.0
 30
0.0
 11
0.0
 21
881.0
 31
0.0
  0
LINE
  5
F0
330
18
100
AcDbEntity
  8
default
100
AcDbLine
 10
980.0
 20
861.0
 30
0.0
 11
980.0
 21
881.0
 31
0.0
  0
LINE
  5
F1
330
18
100
AcDbEntity
  8
default
100
AcDbLine
 10
0.0
 20
881.0
 30
0.0
 11
980.0
 21
881.0
 31
0.0
  0
LINE
  5
F2
330
18
100
AcDbEntity
  8
default
100
AcDbLine
 10
0.0
 20
861.0
 30
0.0
 11
980.0
 21
861.0
 31
0.0
  0
LINE
  5
F3
330
18
100
AcDbEntity
  8
default
100
AcDbLine
 10
140.0
 20
281.0
 30
0.0
 11
140.0
 21
861.0
 31
0.0
  0
LINE
  5
F4
330
18
100
AcDbEntity
  8
default
100
AcDbLine
 10
180.0
 20
281.0
 30
0.0
 11
180.0
 21
861.0
 31
0.0
  0
LINE
  5
F5
330
18
100
AcDbEntity
  8
default
100
AcDbLine
 10
140.0
 20
276.0
 30
0.0
 11
140.0
 21
281.0
 31
0.0
  0
LINE
  5
F6
330
18
100
AcDbEntity
  8
default
100
AcDbLine
 10
180.0
 20
276.0
 30
0.0
 11
180.0
 21
281.0
 31
0.0
  0
LINE
  5
F7
330
18
100
AcDbEntity
  8
default
100
AcDbLine
 10
140.0
 20
281.0
 30
0.0
 11
180.0
 21
281.0
 31
0.0
  0
LINE
  5
F8
330
18
100
AcDbEntity
  8
default
100
AcDbLine
 10
140.0
 20
276.0
 30
0.0
 11
180.0
 21
276.0
 31
0.0
  0
POINT
  5
F9
330
18
100
AcDbEntity
  8
default
 62
     1
100
AcDbPoint
 10
237.5
 20
665.0
 30
0.0
  0
POINT
  5
FA
330
18
100
AcDbEntity
  8
default
 62
     1
100
AcDbPoint
 10
237.5
 20
677.0
 30
0.0
  0
POINT
  5
FB
330
18
100
AcDbEntity
  8
default
 62
     1
100
AcDbPoint
 10
82.5
 20
677.0
 30
0.0
  0
POINT
  5
FC
330
18
100
AcDbEntity
  8
default
 62
     1
100
AcDbPoint
 10
82.5
 20
665.0
 30
0.0
  0
POINT
  5
FD
330
18
100
AcDbEntity
  8
default
 62
     1
100
AcDbPoint
 10
235.0
 20
690.0
 30
0.0
  0
POINT
  5
FE
330
18
100
AcDbEntity
  8
default
 62
     1
100
AcDbPoint
 10
85.0
 20
690.0
 30
0.0
  0
POINT
  5
FF
330
18
100
AcDbEntity
  8
default
 62
     1
100
AcDbPoint
 10
85.0
 20
677.0
 30
0.0
  0
POINT
  5
100
330
18
100
AcDbEntity
  8
default
 62
     1
100
AcDbPoint
 10
180.0
 20
677.0
 30
0.0
  0
POINT
  5
101
330
18
100
AcDbEntity
  8
default
 62
     1
100
AcDbPoint
 10
180.0
 20
690.0
 30
0.0
  0
POINT
  5
102
330
18
100
AcDbEntity
  8
default
 62
     1
100
AcDbPoint
 10
235.0
 20
677.0
 30
0.0
  0
POINT
  5
103
330
18
100
AcDbEntity
  8
default
 62
     1
100
AcDbPoint
 10
180.0
 20
665.0
 30
0.0
  0
POINT
  5
104
330
18
100
AcDbEntity
  8
default
 62
     1
100
AcDbPoint
 10
140.0
 20
665.0
 30
0.0
  0
LINE
  5
105
330
18
100
AcDbEntity
  8
default
100
AcDbLine
 10
180.0
 20
710.0
 30
0.0
 11
200.0
 21
710.0
 31
0.0
  0
LINE
  5
106
330
18
100
AcDbEntity
  8
default
100
AcDbLine
 10
120.0
 20
710.0
 30
0.0
 11
140.0
 21
710.0
 31
0.0
  0
LINE
  5
107
330
18
100
AcDbEntity
  8
default
100
AcDbLine
 10
180.0
 20
700.0
 30
0.0
 11
200.0
 21
700.0
 31
0.0
  0
LINE
  5
108
330
18
100
AcDbEntity
  8
default
100
AcDbLine
 10
200.0
 20
700.0
 30
0.0
 11
200.0
 21
710.0
 31
0.0
  0
POINT
  5
109
330
18
100
AcDbEntity
  8
default
 62
     1
100
AcDbPoint
 10
120.0
 20
700.0
 30
0.0
  0
LINE
  5
10A
330
18
100
AcDbEntity
  8
default
100
AcDbLine
 10
120.0
 20
700.0
 30
0.0
 11
120.0
 21
710.0
 31
0.0
  0
LINE
  5
10B
330
18
100
AcDbEntity
  8
default
100
AcDbLine
 10
120.0
 20
700.0
 30
0.0
 11
140.0
 21
700.0
 31
0.0
  0
LINE
  5
10C
330
18
100
AcDbEntity
  8
default
100
AcDbLine
 10
180.0
 20
665.0
 30
0.0
 11
237.5
 21
665.0
 31
0.0
  0
LINE
  5
10D
330
18
100
AcDbEntity
  8
default
100
AcDbLine
 10
82.5
 20
665.0
 30
0.0
 11
140.0
 21
665.0
 31
0.0
  0
LINE
  5
10E
330
18
100
AcDbEntity
  8
default
100
AcDbLine
 10
180.0
 20
661.0
 30
0.0
 11
230.0
 21
661.0
 31
0.0
  0
LINE
  5
10F
330
18
100
AcDbEntity
  8
default
100
AcDbLine
 10
90.0
 20
661.0
 30
0.0
 11
140.0
 21
661.0
 31
0.0
  0
LINE
  5
110
330
18
100
AcDbEntity
  8
default
100
AcDbLine
 10
180.0
 20
677.0
 30
0.0
 11
237.5
 21
677.0
 31
0.0
  0
LINE
  5
111
330
18
100
AcDbEntity
  8
default
100
AcDbLine
 10
82.5
 20
677.0
 30
0.0
 11
140.0
 21
677.0
 31
0.0
  0
LINE
  5
112
330
18
100
AcDbEntity
  8
default
100
AcDbLine
 10
235.0
 20
677.0
 30
0.0
 11
235.0
 21
690.0
 31
0.0
  0
LINE
  5
113
330
18
100
AcDbEntity
  8
default
100
AcDbLine
 10
85.0
 20
677.0
 30
0.0
 11
85.0
 21
690.0
 31
0.0
  0
LINE
  5
114
330
18
100
AcDbEntity
  8
default
100
AcDbLine
 10
180.0
 20
690.0
 30
0.0
 11
235.0
 21
690.0
 31
0.0
  0
LINE
  5
115
330
18
100
AcDbEntity
  8
default
100
AcDbLine
 10
85.0
 20
690.0
 30
0.0
 11
140.0
 21
690.0
 31
0.0
  0
LINE
  5
116
330
18
100
AcDbEntity
  8
default
100
AcDbLine
 10
237.5
 20
665.0
 30
0.0
 11
237.5
 21
677.0
 31
0.0
  0
LINE
  5
117
330
18
100
AcDbEntity
  8
default
100
AcDbLine
 10
82.5
 20
665.0
 30
0.0
 11
82.5
 21
677.0
 31
0.0
  0
POINT
  5
118
330
18
100
AcDbEntity
  8
default
 62
     1
100
AcDbPoint
 10
180.0
 20
712.5
 30
0.0
  0
POINT
  5
119
330
18
100
AcDbEntity
  8
default
 62
     1
100
AcDbPoint
 10
140.0
 20
712.5
 30
0.0
  0
LINE
  5
11A
330
18
100
AcDbEntity
  8
default
100
AcDbLine
 10
180.0
 20
712.5
 30
0.0
 11
800.0
 21
712.5
 31
0.0
  0
POINT
  5
11B
330
18
100
AcDbEntity
  8
default
 62
     1
100
AcDbPoint
 10
180.0
 20
822.5
 30
0.0
  0
POINT
  5
11C
330
18
100
AcDbEntity
  8
default
 62
     1
100
AcDbPoint
 10
140.0
 20
822.5
 30
0.0
  0
LINE
  5
11D
330
18
100
AcDbEntity
  8
default
100
AcDbLine
 10
0.0
 20
822.5
 30
0.0
 11
140.0
 21
822.5
 31
0.0
  0
LINE
  5
11E
330
18
100
AcDbEntity
  8
default
100
AcDbLine
 10
180.0
 20
822.5
 30
0.0
 11
800.0
 21
822.5
 31
0.0
  0
LINE
  5
11F
330
18
100
AcDbEntity
  8
default
100
AcDbLine
 10
0.0
 20
712.5
 30
0.0
 11
140.0
 21
712.5
 31
0.0
  0
POINT
  5
120
330
18
100
AcDbEntity
  8
default
 62
     1
100
AcDbPoint
 10
0.0
 20
0.0
 30
0.0
  0
LINE
  5
121
330
18
100
AcDbEntity
  8
default
100
AcDbLine
 10
0.0
 20
0.0
 30
0.0
 11
490.0
 21
0.0
 31
0.0
  0
LINE
  5
122
330
18
100
AcDbEntity
  8
default
100
AcDbLine
 10
120.0
 20
0.0
 30
0.0
 11
120.0
 21
14.0
 31
0.0
  0
LINE
  5
123
330
18
100
AcDbEntity
  8
default
100
AcDbLine
 10
120.0
 20
14.0
 30
0.0
 11
131.5
 21
14.0
 31
0.0
  0
LINE
  5
124
330
18
100
AcDbEntity
  8
default
100
AcDbLine
 10
200.0
 20
0.0
 30
0.0
 11
200.0
 21
14.0
 31
0.0
  0
LINE
  5
125
330
18
100
AcDbEntity
  8
default
100
AcDbLine
 10
188.5
 20
14.0
 30
0.0
 11
200.0
 21
14.0
 31
0.0
  0
LINE
  5
126
330
18
100
AcDbEntity
  8
default
100
AcDbLine
 10
860.0
 20
0.0
 30
0.0
 11
860.0
 21
14.0
 31
0.0
  0
LINE
  5
127
330
18
100
AcDbEntity
  8
default
100
AcDbLine
 10
848.5
 20
14.0
 30
0.0
 11
860.0
 21
14.0
 31
0.0
  0
LINE
  5
128
330
18
100
AcDbEntity
  8
default
100
AcDbLine
 10
780.0
 20
0.0
 30
0.0
 11
780.0
 21
14.0
 31
0.0
  0
LINE
  5
129
330
18
100
AcDbEntity
  8
default
100
AcDbLine
 10
780.0
 20
14.0
 30
0.0
 11
791.5
 21
14.0
 31
0.0
  0
SOLID
  5
12A
330
18
100
AcDbEntity
  8
default
100
AcDbTrace
 10
0.0
 20
949.2418
 30
0.0
 11
23.4885
 21
953.163
 31
0.0
 12
23.4885
 22
945.3205
 32
0.0
 13
23.4885
 23
945.3205
 33
0.0
  0
SOLID
  5
12B
330
18
100
AcDbEntity
  8
default
100
AcDbTrace
 10
980.0
 20
949.2418
 30
0.0
 11
956.5115
 21
945.3205
 31
0.0
 12
956.5115
 22
953.163
 32
0.0
 13
956.5115
 23
953.163
 33
0.0
  0
LINE
  5
12C
330
18
100
AcDbEntity
  8
default
100
AcDbLine
 10
0.0
 20
949.2418
 30
0.0
 11
445.5767
 21
949.2418
 31
0.0
  0
LINE
  5
12D
330
18
100
AcDbEntity
  8
default
100
AcDbLine
 10
534.2798
 20
949.2418
 30
0.0
 11
980.0
 21
949.2418
 31
0.0
  0
TEXT
  5
12E
330
18
100
AcDbEntity
  8
default
100
AcDbText
 10
453.5142
 20
941.0548
 30
0.0
 40
16.0421
  1
980mm
  7
Arial
100
AcDbText
  0
LINE
  5
12F
330
18
100
AcDbEntity
  8
default
100
AcDbLine
 10
0.0
 20
888.9375
 30
0.0
 11
0.0
 21
965.1168
 31
0.0
  0
LINE
  5
130
330
18
100
AcDbEntity
  8
default
100
AcDbLine
 10
980.0
 20
888.9375
 30
0.0
 11
980.0
 21
965.1168
 31
0.0
  0
POINT
  5
131
330
18
100
AcDbEntity
  8
default
 62
     1
100
AcDbPoint
 10
2430.0
 20
0.0
 30
0.0
  0
POINT
  5
132
330
18
100
AcDbEntity
  8
default
 62
     1
100
AcDbPoint
 10
3410.0
 20
0.0
 30
0.0
  0
POINT
  5
133
330
18
100
AcDbEntity
  8
default
 62
     1
100
AcDbPoint
 10
2430.0
 20
0.0
 30
0.0
  0
POINT
  5
134
330
18
100
AcDbEntity
  8
default
 62
     1
100
AcDbPoint
 10
2920.0
 20
0.0
 30
0.0
  0
POINT
  5
135
330
18
100
AcDbEntity
  8
default
 62
     1
100
AcDbPoint
 10
2590.0
 20
0.0
 30
0.0
  0
POINT
  5
136
330
18
100
AcDbEntity
  8
default
 62
     1
100
AcDbPoint
 10
3250.0
 20
0.0
 30
0.0
  0
POINT
  5
137
330
18
100
AcDbEntity
  8
default
 62
     1
100
AcDbPoint
 10
2590.0
 20
712.5
 30
0.0
  0
POINT
  5
138
330
18
100
AcDbEntity
  8
default
 62
     1
100
AcDbPoint
 10
3250.0
 20
822.5
 30
0.0
  0
LINE
  5
139
330
18
100
AcDbEntity
  8
default
100
AcDbLine
 10
2590.0
 20
712.5
 30
0.0
 11
2590.0
 21
822.5
 31
0.0
  0
LINE
  5
13A
330
18
100
AcDbEntity
  8
default
100
AcDbLine
 10
3250.0
 20
712.5
 30
0.0
 11
3250.0
 21
822.5
 31
0.0
  0
LINE
  5
13B
330
18
100
AcDbEntity
  8
default
100
AcDbLine
 10
2590.0
 20
822.5
 30
0.0
 11
3250.0
 21
822.5
 31
0.0
  0
LINE
  5
13C
330
18
100
AcDbEntity
  8
default
100
AcDbLine
 10
2590.0
 20
712.5
 30
0.0
 11
3250.0
 21
712.5
 31
0.0
  0
POINT
  5
13D
330
18
100
AcDbEntity
  8
default
 62
     1
100
AcDbPoint
 10
2810.0
 20
0.0
 30
0.0
  0
POINT
  5
13E
330
18
100
AcDbEntity
  8
default
 62
     1
100
AcDbPoint
 10
3030.0
 20
0.0
 30
0.0
  0
LINE
  5
13F
330
18
100
AcDbEntity
  8
default
100
AcDbLine
 10
2430.0
 20
0.0
 30
0.0
 11
3410.0
 21
0.0
 31
0.0
  0
POINT
  5
140
330
18
100
AcDbEntity
  8
default
 62
     1
100
AcDbPoint
 10
2740.0
 20
0.0
 30
0.0
  0
POINT
  5
141
330
18
100
AcDbEntity
  8
default
 62
     1
100
AcDbPoint
 10
2740.0
 20
6.0
 30
0.0
  0
POINT
  5
142
330
18
100
AcDbEntity
  8
default
 62
     1
100
AcDbPoint
 10
2768.5
 20
14.0
 30
0.0
  0
POINT
  5
143
330
18
100
AcDbEntity
  8
default
 62
     1
100
AcDbPoint
 10
2760.5
 20
6.0
 30
0.0
  0
LINE
  5
144
330
18
100
AcDbEntity
  8
default
100
AcDbLine
 10
2740.0
 20
6.0
 30
0.0
 11
2760.5
 21
6.0
 31
0.0
  0
LINE
  5
145
330
18
100
AcDbEntity
  8
default
100
AcDbLine
 10
2760.5
 20
6.0
 30
0.0
 11
2768.5
 21
14.0
 31
0.0
  0
POINT
  5
146
330
18
100
AcDbEntity
  8
default
 62
     1
100
AcDbPoint
 10
2711.5
 20
14.0
 30
0.0
  0
POINT
  5
147
330
18
100
AcDbEntity
  8
default
 62
     1
100
AcDbPoint
 10
2719.5
 20
6.0
 30
0.0
  0
LINE
  5
148
330
18
100
AcDbEntity
  8
default
100
AcDbLine
 10
2719.5
 20
6.0
 30
0.0
 11
2740.0
 21
6.0
 31
0.0
  0
LINE
  5
149
330
18
100
AcDbEntity
  8
default
100
AcDbLine
 10
2711.5
 20
14.0
 30
0.0
 11
2719.5
 21
6.0
 31
0.0
  0
POINT
  5
14A
330
18
100
AcDbEntity
  8
default
 62
     1
100
AcDbPoint
 10
2740.0
 20
81.0
 30
0.0
  0
POINT
  5
14B
330
18
100
AcDbEntity
  8
default
 62
     1
100
AcDbPoint
 10
2670.0
 20
81.0
 30
0.0
  0
POINT
  5
14C
330
18
100
AcDbEntity
  8
default
 62
     1
100
AcDbPoint
 10
2810.0
 20
81.0
 30
0.0
  0
POINT
  5
14D
330
18
100
AcDbEntity
  8
default
 62
     1
100
AcDbPoint
 10
2670.0
 20
661.0
 30
0.0
  0
POINT
  5
14E
330
18
100
AcDbEntity
  8
default
 62
     1
100
AcDbPoint
 10
2810.0
 20
661.0
 30
0.0
  0
LINE
  5
14F
330
18
100
AcDbEntity
  8
default
100
AcDbLine
 10
2670.0
 20
81.0
 30
0.0
 11
2670.0
 21
661.0
 31
0.0
  0
LINE
  5
150
330
18
100
AcDbEntity
  8
default
100
AcDbLine
 10
2810.0
 20
81.0
 30
0.0
 11
2810.0
 21
661.0
 31
0.0
  0
LINE
  5
151
330
18
100
AcDbEntity
  8
default
100
AcDbLine
 10
2670.0
 20
81.0
 30
0.0
 11
2810.0
 21
81.0
 31
0.0
  0
POINT
  5
152
330
18
100
AcDbEntity
  8
default
 62
     1
100
AcDbPoint
 10
2710.193
 20
81.0
 30
0.0
  0
POINT
  5
153
330
18
100
AcDbEntity
  8
default
 62
     1
100
AcDbPoint
 10
2769.807
 20
81.0
 30
0.0
  0
ELLIPSE
  5
154
330
18
100
AcDbEntity
  8
default
100
AcDbEllipse
 10
2721.793
 20
9.1991
 30
0.0
 11
-6.3027
 21
1.8974
 31
0.0
210
0.0
220
0.0
230
1.0
 40
0.226934
 41
0.629587
 42
2.200383
  0
ELLIPSE
  5
155
330
18
100
AcDbEntity
  8
default
100
AcDbEllipse
 10
2734.2587
 20
6.9092
 30
0.0
 11
-10.7616
 21
0.5016000000000002
 31
0.0
210
0.0
220
0.0
230
0.9999999999999999
 40
0.07048
 41
0.566018
 42
2.136815
  0
ELLIPSE
  5
156
330
18
100
AcDbEntity
  8
default
100
AcDbEllipse
 10
2714.6676
 20
11.7073
 30
0.0
 11
-3.6253
 21
2.9117
 31
0.0
210
0.0
220
0.0
230
1.0
 40
0.077659
 41
0.573518
 42
2.144314
  0
ELLIPSE
  5
157
330
18
100
AcDbEntity
  8
default
100
AcDbEllipse
 10
2710.7312
 20
17.5328
 30
0.0
 11
-0.4379000000000001
 21
2.633100000000001
 31
0.0
210
0.0
220
0.0
230
0.9999999999999998
 40
0.115236
 41
0.601741
 42
2.172537
  0
ELLIPSE
  5
158
330
18
100
AcDbEntity
  8
default
100
AcDbEllipse
 10
2711.2607
 20
15.0771
 30
0.0
 11
-0.5412
 21
1.416
 31
0.0
210
0.0
220
0.0
230
0.9999999999999999
 40
0.15311
 41
0.803778
 42
2.374574
  0
LINE
  5
159
330
18
100
AcDbEntity
  8
default
100
AcDbLine
 10
2710.193
 20
19.6746
 30
0.0
 11
2710.193
 21
81.0
 31
0.0
  0
POINT
  5
15A
330
18
100
AcDbEntity
  8
default
 62
     1
100
AcDbPoint
 10
2768.5
 20
14.0
 30
0.0
  0
POINT
  5
15B
330
18
100
AcDbEntity
  8
default
 62
     1
100
AcDbPoint
 10
2760.5
 20
6.0
 30
0.0
  0
LINE
  5
15C
330
18
100
AcDbEntity
  8
default
100
AcDbLine
 10
2740.0
 20
6.0
 30
0.0
 11
2760.5
 21
6.0
 31
0.0
  0
LINE
  5
15D
330
18
100
AcDbEntity
  8
default
100
AcDbLine
 10
2760.5
 20
6.0
 30
0.0
 11
2768.5
 21
14.0
 31
0.0
  0
POINT
  5
15E
330
18
100
AcDbEntity
  8
default
 62
     1
100
AcDbPoint
 10
2764.5
 20
10.0
 30
0.0
  0
ELLIPSE
  5
15F
330
18
100
AcDbEntity
  8
default
100
AcDbEllipse
 10
2758.207
 20
9.1991
 30
0.0
 11
6.3027
 21
1.8974
 31
0.0
210
0.0
220
0.0
230
1.0
 40
0.226934
 41
4.08279
 42
5.653587
  0
ELLIPSE
  5
160
330
18
100
AcDbEntity
  8
default
100
AcDbEllipse
 10
2745.7413
 20
6.9092
 30
0.0
 11
10.7616
 21
0.5016000000000002
 31
0.0
210
0.0
220
0.0
230
0.9999999999999999
 40
0.07048
 41
4.146397
 42
5.717193
  0
ELLIPSE
  5
161
330
18
100
AcDbEntity
  8
default
100
AcDbEllipse
 10
2765.3324
 20
11.7073
 30
0.0
 11
3.6253
 21
2.9117
 31
0.0
210
0.0
220
0.0
230
1.0
 40
0.077659
 41
4.138696
 42
5.709492
  0
ELLIPSE
  5
162
330
18
100
AcDbEntity
  8
default
100
AcDbEllipse
 10
2769.2688
 20
17.5328
 30
0.0
 11
0.4379000000000001
 21
2.633100000000001
 31
0.0
210
0.0
220
0.0
230
0.9999999999999998
 40
0.115236
 41
4.110275
 42
5.681071
  0
ELLIPSE
  5
163
330
18
100
AcDbEntity
  8
default
100
AcDbEllipse
 10
2768.7393
 20
15.0771
 30
0.0
 11
0.5412
 21
1.416
 31
0.0
210
0.0
220
0.0
230
0.9999999999999999
 40
0.15311
 41
3.90819
 42
5.478987
  0
LINE
  5
164
330
18
100
AcDbEntity
  8
default
100
AcDbLine
 10
2769.807
 20
19.6746
 30
0.0
 11
2769.807
 21
81.0
 31
0.0
  0
POINT
  5
165
330
18
100
AcDbEntity
  8
default
 62
     1
100
AcDbPoint
 10
2715.0
 20
710.0
 30
0.0
  0
POINT
  5
166
330
18
100
AcDbEntity
  8
default
 62
     1
100
AcDbPoint
 10
2765.0
 20
710.0
 30
0.0
  0
POINT
  5
167
330
18
100
AcDbEntity
  8
default
 62
     1
100
AcDbPoint
 10
2710.0
 20
710.0
 30
0.0
  0
POINT
  5
168
330
18
100
AcDbEntity
  8
default
 62
     1
100
AcDbPoint
 10
2770.0
 20
710.0
 30
0.0
  0
CIRCLE
  5
169
330
18
100
AcDbEntity
  8
default
100
AcDbCircle
 10
2712.5
 20
710.0
 30
0.0
 40
2.5
  0
CIRCLE
  5
16A
330
18
100
AcDbEntity
  8
default
100
AcDbCircle
 10
2767.5
 20
710.0
 30
0.0
 40
2.5
  0
POINT
  5
16B
330
18
100
AcDbEntity
  8
default
 62
     1
100
AcDbPoint
 10
2740.0
 20
561.0
 30
0.0
  0
POINT
  5
16C
330
18
100
AcDbEntity
  8
default
 62
     1
100
AcDbPoint
 10
2740.0
 20
511.0
 30
0.0
  0
POINT
  5
16D
330
18
100
AcDbEntity
  8
default
 62
     1
100
AcDbPoint
 10
2740.0
 20
411.0
 30
0.0
  0
POINT
  5
16E
330
18
100
AcDbEntity
  8
default
 62
     1
100
AcDbPoint
 10
2670.0
 20
661.0
 30
0.0
  0
POINT
  5
16F
330
18
100
AcDbEntity
  8
default
 62
     1
100
AcDbPoint
 10
2810.0
 20
661.0
 30
0.0
  0
LINE
  5
170
330
18
100
AcDbEntity
  8
default
100
AcDbLine
 10
2670.0
 20
81.0
 30
0.0
 11
2670.0
 21
661.0
 31
0.0
  0
LINE
  5
171
330
18
100
AcDbEntity
  8
default
100
AcDbLine
 10
2810.0
 20
81.0
 30
0.0
 11
2810.0
 21
661.0
 31
0.0
  0
POINT
  5
172
330
18
100
AcDbEntity
  8
default
 62
     1
100
AcDbPoint
 10
2700.0
 20
710.0
 30
0.0
  0
POINT
  5
173
330
18
100
AcDbEntity
  8
default
 62
     1
100
AcDbPoint
 10
2780.0
 20
710.0
 30
0.0
  0
POINT
  5
174
330
18
100
AcDbEntity
  8
default
 62
     1
100
AcDbPoint
 10
2780.0
 20
700.0
 30
0.0
  0
POINT
  5
175
330
18
100
AcDbEntity
  8
default
 62
     1
100
AcDbPoint
 10
2715.0
 20
710.0
 30
0.0
  0
POINT
  5
176
330
18
100
AcDbEntity
  8
default
 62
     1
100
AcDbPoint
 10
2765.0
 20
710.0
 30
0.0
  0
POINT
  5
177
330
18
100
AcDbEntity
  8
default
 62
     1
100
AcDbPoint
 10
2710.0
 20
710.0
 30
0.0
  0
POINT
  5
178
330
18
100
AcDbEntity
  8
default
 62
     1
100
AcDbPoint
 10
2770.0
 20
710.0
 30
0.0
  0
CIRCLE
  5
179
330
18
100
AcDbEntity
  8
default
100
AcDbCircle
 10
2712.5
 20
710.0
 30
0.0
 40
2.5
  0
CIRCLE
  5
17A
330
18
100
AcDbEntity
  8
default
100
AcDbCircle
 10
2767.5
 20
710.0
 30
0.0
 40
2.5
  0
POINT
  5
17B
330
18
100
AcDbEntity
  8
default
 62
     1
100
AcDbPoint
 10
2674.0
 20
661.0
 30
0.0
  0
LINE
  5
17C
330
18
100
AcDbEntity
  8
default
100
AcDbLine
 10
2674.0
 20
661.0
 30
0.0
 11
2674.0
 21
665.0
 31
0.0
  0
POINT
  5
17D
330
18
100
AcDbEntity
  8
default
 62
     1
100
AcDbPoint
 10
2806.0
 20
661.0
 30
0.0
  0
LINE
  5
17E
330
18
100
AcDbEntity
  8
default
100
AcDbLine
 10
2806.0
 20
661.0
 30
0.0
 11
2806.0
 21
665.0
 31
0.0
  0
POINT
  5
17F
330
18
100
AcDbEntity
  8
default
 62
     1
100
AcDbPoint
 10
2740.0
 20
511.0
 30
0.0
  0
POINT
  5
180
330
18
100
AcDbEntity
  8
default
 62
     1
100
AcDbPoint
 10
2740.0
 20
411.0
 30
0.0
  0
POINT
  5
181
330
18
100
AcDbEntity
  8
default
 62
     1
100
AcDbPoint
 10
2817.5
 20
665.0
 30
0.0
  0
POINT
  5
182
330
18
100
AcDbEntity
  8
default
 62
     1
100
AcDbPoint
 10
2817.5
 20
677.0
 30
0.0
  0
POINT
  5
183
330
18
100
AcDbEntity
  8
default
 62
     1
100
AcDbPoint
 10
2662.5
 20
677.0
 30
0.0
  0
POINT
  5
184
330
18
100
AcDbEntity
  8
default
 62
     1
100
AcDbPoint
 10
2662.5
 20
665.0
 30
0.0
  0
POINT
  5
185
330
18
100
AcDbEntity
  8
default
 62
     1
100
AcDbPoint
 10
2815.0
 20
690.0
 30
0.0
  0
POINT
  5
186
330
18
100
AcDbEntity
  8
default
 62
     1
100
AcDbPoint
 10
2665.0
 20
690.0
 30
0.0
  0
POINT
  5
187
330
18
100
AcDbEntity
  8
default
 62
     1
100
AcDbPoint
 10
2665.0
 20
677.0
 30
0.0
  0
POINT
  5
188
330
18
100
AcDbEntity
  8
default
 62
     1
100
AcDbPoint
 10
2815.0
 20
677.0
 30
0.0
  0
LINE
  5
189
330
18
100
AcDbEntity
  8
default
100
AcDbLine
 10
2780.0
 20
700.0
 30
0.0
 11
2780.0
 21
710.0
 31
0.0
  0
POINT
  5
18A
330
18
100
AcDbEntity
  8
default
 62
     1
100
AcDbPoint
 10
2700.0
 20
700.0
 30
0.0
  0
LINE
  5
18B
330
18
100
AcDbEntity
  8
default
100
AcDbLine
 10
2700.0
 20
700.0
 30
0.0
 11
2700.0
 21
710.0
 31
0.0
  0
LINE
  5
18C
330
18
100
AcDbEntity
  8
default
100
AcDbLine
 10
2815.0
 20
677.0
 30
0.0
 11
2815.0
 21
690.0
 31
0.0
  0
LINE
  5
18D
330
18
100
AcDbEntity
  8
default
100
AcDbLine
 10
2665.0
 20
677.0
 30
0.0
 11
2665.0
 21
690.0
 31
0.0
  0
LINE
  5
18E
330
18
100
AcDbEntity
  8
default
100
AcDbLine
 10
2817.5
 20
665.0
 30
0.0
 11
2817.5
 21
677.0
 31
0.0
  0
LINE
  5
18F
330
18
100
AcDbEntity
  8
default
100
AcDbLine
 10
2662.5
 20
665.0
 30
0.0
 11
2662.5
 21
677.0
 31
0.0
  0
LINE
  5
190
330
18
100
AcDbEntity
  8
default
100
AcDbLine
 10
2700.0
 20
0.0
 30
0.0
 11
2700.0
 21
14.0
 31
0.0
  0
LINE
  5
191
330
18
100
AcDbEntity
  8
default
100
AcDbLine
 10
2700.0
 20
14.0
 30
0.0
 11
2711.5
 21
14.0
 31
0.0
  0
LINE
  5
192
330
18
100
AcDbEntity
  8
default
100
AcDbLine
 10
2780.0
 20
0.0
 30
0.0
 11
2780.0
 21
14.0
 31
0.0
  0
LINE
  5
193
330
18
100
AcDbEntity
  8
default
100
AcDbLine
 10
2768.5
 20
14.0
 30
0.0
 11
2780.0
 21
14.0
 31
0.0
  0
LINE
  5
194
330
18
100
AcDbEntity
  8
default
100
AcDbLine
 10
2662.5
 20
665.0
 30
0.0
 11
2817.5
 21
665.0
 31
0.0
  0
LINE
  5
195
330
18
100
AcDbEntity
  8
default
100
AcDbLine
 10
2670.0
 20
661.0
 30
0.0
 11
2810.0
 21
661.0
 31
0.0
  0
LINE
  5
196
330
18
100
AcDbEntity
  8
default
100
AcDbLine
 10
2662.5
 20
677.0
 30
0.0
 11
2817.5
 21
677.0
 31
0.0
  0
LINE
  5
197
330
18
100
AcDbEntity
  8
default
100
AcDbLine
 10
2665.0
 20
690.0
 30
0.0
 11
2815.0
 21
690.0
 31
0.0
  0
LINE
  5
198
330
18
100
AcDbEntity
  8
default
100
AcDbLine
 10
2700.0
 20
710.0
 30
0.0
 11
2780.0
 21
710.0
 31
0.0
  0
LINE
  5
199
330
18
100
AcDbEntity
  8
default
100
AcDbLine
 10
2700.0
 20
700.0
 30
0.0
 11
2780.0
 21
700.0
 31
0.0
  0
POINT
  5
19A
330
18
100
AcDbEntity
  8
default
 62
     1
100
AcDbPoint
 10
2734.0
 20
700.0
 30
0.0
  0
POINT
  5
19B
330
18
100
AcDbEntity
  8
default
 62
     1
100
AcDbPoint
 10
2746.0
 20
700.0
 30
0.0
  0
LINE
  5
19C
330
18
100
AcDbEntity
  8
default
100
AcDbLine
 10
2734.0
 20
690.0
 30
0.0
 11
2734.0
 21
700.0
 31
0.0
  0
LINE
  5
19D
330
18
100
AcDbEntity
  8
default
100
AcDbLine
 10
2746.0
 20
690.0
 30
0.0
 11
2746.0
 21
700.0
 31
0.0
  0
POINT
  5
19E
330
18
100
AcDbEntity
  8
default
 62
     1
100
AcDbPoint
 10
2670.0
 20
561.0
 30
0.0
  0
POINT
  5
19F
330
18
100
AcDbEntity
  8
default
 62
     1
100
AcDbPoint
 10
2670.0
 20
549.0
 30
0.0
  0
POINT
  5
1A0
330
18
100
AcDbEntity
  8
default
 62
     1
100
AcDbPoint
 10
3100.0
 20
6.0
 30
0.0
  0
POINT
  5
1A1
330
18
100
AcDbEntity
  8
default
 62
     1
100
AcDbPoint
 10
3071.5
 20
14.0
 30
0.0
  0
POINT
  5
1A2
330
18
100
AcDbEntity
  8
default
 62
     1
100
AcDbPoint
 10
3079.5
 20
6.0
 30
0.0
  0
LINE
  5
1A3
330
18
100
AcDbEntity
  8
default
100
AcDbLine
 10
3079.5
 20
6.0
 30
0.0
 11
3100.0
 21
6.0
 31
0.0
  0
LINE
  5
1A4
330
18
100
AcDbEntity
  8
default
100
AcDbLine
 10
3071.5
 20
14.0
 30
0.0
 11
3079.5
 21
6.0
 31
0.0
  0
POINT
  5
1A5
330
18
100
AcDbEntity
  8
default
 62
     1
100
AcDbPoint
 10
3128.5
 20
14.0
 30
0.0
  0
POINT
  5
1A6
330
18
100
AcDbEntity
  8
default
 62
     1
100
AcDbPoint
 10
3120.5
 20
6.0
 30
0.0
  0
LINE
  5
1A7
330
18
100
AcDbEntity
  8
default
100
AcDbLine
 10
3100.0
 20
6.0
 30
0.0
 11
3120.5
 21
6.0
 31
0.0
  0
LINE
  5
1A8
330
18
100
AcDbEntity
  8
default
100
AcDbLine
 10
3120.5
 20
6.0
 30
0.0
 11
3128.5
 21
14.0
 31
0.0
  0
POINT
  5
1A9
330
18
100
AcDbEntity
  8
default
 62
     1
100
AcDbPoint
 10
3100.0
 20
81.0
 30
0.0
  0
POINT
  5
1AA
330
18
100
AcDbEntity
  8
default
 62
     1
100
AcDbPoint
 10
3170.0
 20
81.0
 30
0.0
  0
POINT
  5
1AB
330
18
100
AcDbEntity
  8
default
 62
     1
100
AcDbPoint
 10
3030.0
 20
81.0
 30
0.0
  0
POINT
  5
1AC
330
18
100
AcDbEntity
  8
default
 62
     1
100
AcDbPoint
 10
3170.0
 20
661.0
 30
0.0
  0
POINT
  5
1AD
330
18
100
AcDbEntity
  8
default
 62
     1
100
AcDbPoint
 10
3030.0
 20
661.0
 30
0.0
  0
LINE
  5
1AE
330
18
100
AcDbEntity
  8
default
100
AcDbLine
 10
3170.0
 20
81.0
 30
0.0
 11
3170.0
 21
661.0
 31
0.0
  0
LINE
  5
1AF
330
18
100
AcDbEntity
  8
default
100
AcDbLine
 10
3030.0
 20
81.0
 30
0.0
 11
3030.0
 21
661.0
 31
0.0
  0
LINE
  5
1B0
330
18
100
AcDbEntity
  8
default
100
AcDbLine
 10
3030.0
 20
81.0
 30
0.0
 11
3170.0
 21
81.0
 31
0.0
  0
POINT
  5
1B1
330
18
100
AcDbEntity
  8
default
 62
     1
100
AcDbPoint
 10
3129.807
 20
81.0
 30
0.0
  0
POINT
  5
1B2
330
18
100
AcDbEntity
  8
default
 62
     1
100
AcDbPoint
 10
3070.193
 20
81.0
 30
0.0
  0
ELLIPSE
  5
1B3
330
18
100
AcDbEntity
  8
default
100
AcDbEllipse
 10
3118.207
 20
9.1991
 30
0.0
 11
6.3027
 21
1.8974
 31
0.0
210
0.0
220
0.0
230
1.0
 40
0.226934
 41
4.08279
 42
5.653587
  0
ELLIPSE
  5
1B4
330
18
100
AcDbEntity
  8
default
100
AcDbEllipse
 10
3105.7413
 20
6.9092
 30
0.0
 11
10.7616
 21
0.5016000000000002
 31
0.0
210
0.0
220
0.0
230
0.9999999999999999
 40
0.07048
 41
4.146397
 42
5.717193
  0
ELLIPSE
  5
1B5
330
18
100
AcDbEntity
  8
default
100
AcDbEllipse
 10
3125.3324
 20
11.7073
 30
0.0
 11
3.6253
 21
2.9117
 31
0.0
210
0.0
220
0.0
230
1.0
 40
0.077659
 41
4.138696
 42
5.709492
  0
ELLIPSE
  5
1B6
330
18
100
AcDbEntity
  8
default
100
AcDbEllipse
 10
3129.2688
 20
17.5328
 30
0.0
 11
0.4379000000000001
 21
2.633100000000001
 31
0.0
210
0.0
220
0.0
230
0.9999999999999998
 40
0.115236
 41
4.110275
 42
5.681071
  0
ELLIPSE
  5
1B7
330
18
100
AcDbEntity
  8
default
100
AcDbEllipse
 10
3128.7393
 20
15.0771
 30
0.0
 11
0.5412
 21
1.416
 31
0.0
210
0.0
220
0.0
230
0.9999999999999999
 40
0.15311
 41
3.90819
 42
5.478987
  0
LINE
  5
1B8
330
18
100
AcDbEntity
  8
default
100
AcDbLine
 10
3129.807
 20
19.6746
 30
0.0
 11
3129.807
 21
81.0
 31
0.0
  0
POINT
  5
1B9
330
18
100
AcDbEntity
  8
default
 62
     1
100
AcDbPoint
 10
3071.5
 20
14.0
 30
0.0
  0
POINT
  5
1BA
330
18
100
AcDbEntity
  8
default
 62
     1
100
AcDbPoint
 10
3079.5
 20
6.0
 30
0.0
  0
LINE
  5
1BB
330
18
100
AcDbEntity
  8
default
100
AcDbLine
 10
3079.5
 20
6.0
 30
0.0
 11
3100.0
 21
6.0
 31
0.0
  0
LINE
  5
1BC
330
18
100
AcDbEntity
  8
default
100
AcDbLine
 10
3071.5
 20
14.0
 30
0.0
 11
3079.5
 21
6.0
 31
0.0
  0
POINT
  5
1BD
330
18
100
AcDbEntity
  8
default
 62
     1
100
AcDbPoint
 10
3075.5
 20
10.0
 30
0.0
  0
ELLIPSE
  5
1BE
330
18
100
AcDbEntity
  8
default
100
AcDbEllipse
 10
3081.793
 20
9.1991
 30
0.0
 11
-6.3027
 21
1.8974
 31
0.0
210
0.0
220
0.0
230
1.0
 40
0.226934
 41
0.629587
 42
2.200383
  0
ELLIPSE
  5
1BF
330
18
100
AcDbEntity
  8
default
100
AcDbEllipse
 10
3094.2587
 20
6.9092
 30
0.0
 11
-10.7616
 21
0.5016000000000002
 31
0.0
210
0.0
220
0.0
230
0.9999999999999999
 40
0.07048
 41
0.566018
 42
2.136815
  0
ELLIPSE
  5
1C0
330
18
100
AcDbEntity
  8
default
100
AcDbEllipse
 10
3074.6676
 20
11.7073
 30
0.0
 11
-3.6253
 21
2.9117
 31
0.0
210
0.0
220
0.0
230
1.0
 40
0.077659
 41
0.573518
 42
2.144314
  0
ELLIPSE
  5
1C1
330
18
100
AcDbEntity
  8
default
100
AcDbEllipse
 10
3070.7312
 20
17.5328
 30
0.0
 11
-0.4379000000000001
 21
2.633100000000001
 31
0.0
210
0.0
220
0.0
230
0.9999999999999998
 40
0.115236
 41
0.601741
 42
2.172537
  0
ELLIPSE
  5
1C2
330
18
100
AcDbEntity
  8
default
100
AcDbEllipse
 10
3071.2607
 20
15.0771
 30
0.0
 11
-0.5412
 21
1.416
 31
0.0
210
0.0
220
0.0
230
0.9999999999999999
 40
0.15311
 41
0.803778
 42
2.374574
  0
LINE
  5
1C3
330
18
100
AcDbEntity
  8
default
100
AcDbLine
 10
3070.193
 20
19.6746
 30
0.0
 11
3070.193
 21
81.0
 31
0.0
  0
POINT
  5
1C4
330
18
100
AcDbEntity
  8
default
 62
     1
100
AcDbPoint
 10
3125.0
 20
710.0
 30
0.0
  0
POINT
  5
1C5
330
18
100
AcDbEntity
  8
default
 62
     1
100
AcDbPoint
 10
3075.0
 20
710.0
 30
0.0
  0
POINT
  5
1C6
330
18
100
AcDbEntity
  8
default
 62
     1
100
AcDbPoint
 10
3130.0
 20
710.0
 30
0.0
  0
POINT
  5
1C7
330
18
100
AcDbEntity
  8
default
 62
     1
100
AcDbPoint
 10
3070.0
 20
710.0
 30
0.0
  0
CIRCLE
  5
1C8
330
18
100
AcDbEntity
  8
default
100
AcDbCircle
 10
3127.5
 20
710.0
 30
0.0
 40
2.5
  0
CIRCLE
  5
1C9
330
18
100
AcDbEntity
  8
default
100
AcDbCircle
 10
3072.5
 20
710.0
 30
0.0
 40
2.5
  0
POINT
  5
1CA
330
18
100
AcDbEntity
  8
default
 62
     1
100
AcDbPoint
 10
3100.0
 20
561.0
 30
0.0
  0
POINT
  5
1CB
330
18
100
AcDbEntity
  8
default
 62
     1
100
AcDbPoint
 10
3100.0
 20
511.0
 30
0.0
  0
POINT
  5
1CC
330
18
100
AcDbEntity
  8
default
 62
     1
100
AcDbPoint
 10
3100.0
 20
411.0
 30
0.0
  0
POINT
  5
1CD
330
18
100
AcDbEntity
  8
default
 62
     1
100
AcDbPoint
 10
3170.0
 20
661.0
 30
0.0
  0
POINT
  5
1CE
330
18
100
AcDbEntity
  8
default
 62
     1
100
AcDbPoint
 10
3030.0
 20
661.0
 30
0.0
  0
LINE
  5
1CF
330
18
100
AcDbEntity
  8
default
100
AcDbLine
 10
3170.0
 20
81.0
 30
0.0
 11
3170.0
 21
661.0
 31
0.0
  0
LINE
  5
1D0
330
18
100
AcDbEntity
  8
default
100
AcDbLine
 10
3030.0
 20
81.0
 30
0.0
 11
3030.0
 21
661.0
 31
0.0
  0
POINT
  5
1D1
330
18
100
AcDbEntity
  8
default
 62
     1
100
AcDbPoint
 10
3140.0
 20
710.0
 30
0.0
  0
POINT
  5
1D2
330
18
100
AcDbEntity
  8
default
 62
     1
100
AcDbPoint
 10
3060.0
 20
710.0
 30
0.0
  0
POINT
  5
1D3
330
18
100
AcDbEntity
  8
default
 62
     1
100
AcDbPoint
 10
3060.0
 20
700.0
 30
0.0
  0
POINT
  5
1D4
330
18
100
AcDbEntity
  8
default
 62
     1
100
AcDbPoint
 10
3125.0
 20
710.0
 30
0.0
  0
POINT
  5
1D5
330
18
100
AcDbEntity
  8
default
 62
     1
100
AcDbPoint
 10
3075.0
 20
710.0
 30
0.0
  0
POINT
  5
1D6
330
18
100
AcDbEntity
  8
default
 62
     1
100
AcDbPoint
 10
3130.0
 20
710.0
 30
0.0
  0
POINT
  5
1D7
330
18
100
AcDbEntity
  8
default
 62
     1
100
AcDbPoint
 10
3070.0
 20
710.0
 30
0.0
  0
CIRCLE
  5
1D8
330
18
100
AcDbEntity
  8
default
100
AcDbCircle
 10
3127.5
 20
710.0
 30
0.0
 40
2.5
  0
CIRCLE
  5
1D9
330
18
100
AcDbEntity
  8
default
100
AcDbCircle
 10
3072.5
 20
710.0
 30
0.0
 40
2.5
  0
POINT
  5
1DA
330
18
100
AcDbEntity
  8
default
 62
     1
100
AcDbPoint
 10
3166.0
 20
661.0
 30
0.0
  0
LINE
  5
1DB
330
18
100
AcDbEntity
  8
default
100
AcDbLine
 10
3166.0
 20
661.0
 30
0.0
 11
3166.0
 21
665.0
 31
0.0
  0
POINT
  5
1DC
330
18
100
AcDbEntity
  8
default
 62
     1
100
AcDbPoint
 10
3034.0
 20
661.0
 30
0.0
  0
LINE
  5
1DD
330
18
100
AcDbEntity
  8
default
100
AcDbLine
 10
3034.0
 20
661.0
 30
0.0
 11
3034.0
 21
665.0
 31
0.0
  0
POINT
  5
1DE
330
18
100
AcDbEntity
  8
default
 62
     1
100
AcDbPoint
 10
3100.0
 20
511.0
 30
0.0
  0
POINT
  5
1DF
330
18
100
AcDbEntity
  8
default
 62
     1
100
AcDbPoint
 10
3100.0
 20
411.0
 30
0.0
  0
POINT
  5
1E0
330
18
100
AcDbEntity
  8
default
 62
     1
100
AcDbPoint
 10
3022.5
 20
665.0
 30
0.0
  0
POINT
  5
1E1
330
18
100
AcDbEntity
  8
default
 62
     1
100
AcDbPoint
 10
3022.5
 20
677.0
 30
0.0
  0
POINT
  5
1E2
330
18
100
AcDbEntity
  8
default
 62
     1
100
AcDbPoint
 10
3177.5
 20
677.0
 30
0.0
  0
POINT
  5
1E3
330
18
100
AcDbEntity
  8
default
 62
     1
100
AcDbPoint
 10
3177.5
 20
665.0
 30
0.0
  0
POINT
  5
1E4
330
18
100
AcDbEntity
  8
default
 62
     1
100
AcDbPoint
 10
3025.0
 20
690.0
 30
0.0
  0
POINT
  5
1E5
330
18
100
AcDbEntity
  8
default
 62
     1
100
AcDbPoint
 10
3175.0
 20
690.0
 30
0.0
  0
POINT
  5
1E6
330
18
100
AcDbEntity
  8
default
 62
     1
100
AcDbPoint
 10
3175.0
 20
677.0
 30
0.0
  0
POINT
  5
1E7
330
18
100
AcDbEntity
  8
default
 62
     1
100
AcDbPoint
 10
3025.0
 20
677.0
 30
0.0
  0
LINE
  5
1E8
330
18
100
AcDbEntity
  8
default
100
AcDbLine
 10
3060.0
 20
700.0
 30
0.0
 11
3060.0
 21
710.0
 31
0.0
  0
POINT
  5
1E9
330
18
100
AcDbEntity
  8
default
 62
     1
100
AcDbPoint
 10
3140.0
 20
700.0
 30
0.0
  0
LINE
  5
1EA
330
18
100
AcDbEntity
  8
default
100
AcDbLine
 10
3140.0
 20
700.0
 30
0.0
 11
3140.0
 21
710.0
 31
0.0
  0
LINE
  5
1EB
330
18
100
AcDbEntity
  8
default
100
AcDbLine
 10
3025.0
 20
677.0
 30
0.0
 11
3025.0
 21
690.0
 31
0.0
  0
LINE
  5
1EC
330
18
100
AcDbEntity
  8
default
100
AcDbLine
 10
3175.0
 20
677.0
 30
0.0
 11
3175.0
 21
690.0
 31
0.0
  0
LINE
  5
1ED
330
18
100
AcDbEntity
  8
default
100
AcDbLine
 10
3022.5
 20
665.0
 30
0.0
 11
3022.5
 21
677.0
 31
0.0
  0
LINE
  5
1EE
330
18
100
AcDbEntity
  8
default
100
AcDbLine
 10
3177.5
 20
665.0
 30
0.0
 11
3177.5
 21
677.0
 31
0.0
  0
LINE
  5
1EF
330
18
100
AcDbEntity
  8
default
100
AcDbLine
 10
3140.0
 20
0.0
 30
0.0
 11
3140.0
 21
14.0
 31
0.0
  0
LINE
  5
1F0
330
18
100
AcDbEntity
  8
default
100
AcDbLine
 10
3128.5
 20
14.0
 30
0.0
 11
3140.0
 21
14.0
 31
0.0
  0
LINE
  5
1F1
330
18
100
AcDbEntity
  8
default
100
AcDbLine
 10
3060.0
 20
0.0
 30
0.0
 11
3060.0
 21
14.0
 31
0.0
  0
LINE
  5
1F2
330
18
100
AcDbEntity
  8
default
100
AcDbLine
 10
3060.0
 20
14.0
 30
0.0
 11
3071.5
 21
14.0
 31
0.0
  0
LINE
  5
1F3
330
18
100
AcDbEntity
  8
default
100
AcDbLine
 10
3022.5
 20
665.0
 30
0.0
 11
3177.5
 21
665.0
 31
0.0
  0
LINE
  5
1F4
330
18
100
AcDbEntity
  8
default
100
AcDbLine
 10
3030.0
 20
661.0
 30
0.0
 11
3170.0
 21
661.0
 31
0.0
  0
LINE
  5
1F5
330
18
100
AcDbEntity
  8
default
100
AcDbLine
 10
3022.5
 20
677.0
 30
0.0
 11
3177.5
 21
677.0
 31
0.0
  0
LINE
  5
1F6
330
18
100
AcDbEntity
  8
default
100
AcDbLine
 10
3025.0
 20
690.0
 30
0.0
 11
3175.0
 21
690.0
 31
0.0
  0
LINE
  5
1F7
330
18
100
AcDbEntity
  8
default
100
AcDbLine
 10
3060.0
 20
710.0
 30
0.0
 11
3140.0
 21
710.0
 31
0.0
  0
LINE
  5
1F8
330
18
100
AcDbEntity
  8
default
100
AcDbLine
 10
3060.0
 20
700.0
 30
0.0
 11
3140.0
 21
700.0
 31
0.0
  0
POINT
  5
1F9
330
18
100
AcDbEntity
  8
default
 62
     1
100
AcDbPoint
 10
3106.0
 20
700.0
 30
0.0
  0
POINT
  5
1FA
330
18
100
AcDbEntity
  8
default
 62
     1
100
AcDbPoint
 10
3094.0
 20
700.0
 30
0.0
  0
LINE
  5
1FB
330
18
100
AcDbEntity
  8
default
100
AcDbLine
 10
3106.0
 20
690.0
 30
0.0
 11
3106.0
 21
700.0
 31
0.0
  0
LINE
  5
1FC
330
18
100
AcDbEntity
  8
default
100
AcDbLine
 10
3094.0
 20
690.0
 30
0.0
 11
3094.0
 21
700.0
 31
0.0
  0
POINT
  5
1FD
330
18
100
AcDbEntity
  8
default
 62
     1
100
AcDbPoint
 10
3170.0
 20
561.0
 30
0.0
  0
POINT
  5
1FE
330
18
100
AcDbEntity
  8
default
 62
     1
100
AcDbPoint
 10
3170.0
 20
573.0
 30
0.0
  0
POINT
  5
1FF
330
18
100
AcDbEntity
  8
default
 62
     1
100
AcDbPoint
 10
3170.0
 20
549.0
 30
0.0
  0
POINT
  5
200
330
18
100
AcDbEntity
  8
default
 62
     1
100
AcDbPoint
 10
2520.0
 20
561.0
 30
0.0
  0
POINT
  5
201
330
18
100
AcDbEntity
  8
default
 62
     1
100
AcDbPoint
 10
2530.0
 20
561.0
 30
0.0
  0
POINT
  5
202
330
18
100
AcDbEntity
  8
default
 62
     1
100
AcDbPoint
 10
2520.0
 20
561.0
 30
0.0
  0
POINT
  5
203
330
18
100
AcDbEntity
  8
default
 62
     1
100
AcDbPoint
 10
2670.0
 20
411.0
 30
0.0
  0
POINT
  5
204
330
18
100
AcDbEntity
  8
default
 62
     1
100
AcDbPoint
 10
2520.0
 20
411.0
 30
0.0
  0
LINE
  5
205
330
18
100
AcDbEntity
  8
default
100
AcDbLine
 10
2518.0
 20
281.0
 30
0.0
 11
2518.0
 21
861.0
 31
0.0
  0
LINE
  5
206
330
18
100
AcDbEntity
  8
default
100
AcDbLine
 10
2538.0
 20
281.0
 30
0.0
 11
2538.0
 21
861.0
 31
0.0
  0
LINE
  5
207
330
18
100
AcDbEntity
  8
default
100
AcDbLine
 10
2518.0
 20
276.0
 30
0.0
 11
2518.0
 21
281.0
 31
0.0
  0
LINE
  5
208
330
18
100
AcDbEntity
  8
default
100
AcDbLine
 10
2538.0
 20
276.0
 30
0.0
 11
2538.0
 21
281.0
 31
0.0
  0
LINE
  5
209
330
18
100
AcDbEntity
  8
default
100
AcDbLine
 10
2518.0
 20
281.0
 30
0.0
 11
2538.0
 21
281.0
 31
0.0
  0
LINE
  5
20A
330
18
100
AcDbEntity
  8
default
100
AcDbLine
 10
2518.0
 20
276.0
 30
0.0
 11
2538.0
 21
276.0
 31
0.0
  0
LINE
  5
20B
330
18
100
AcDbEntity
  8
default
100
AcDbLine
 10
2538.0
 20
549.0
 30
0.0
 11
2670.0
 21
549.0
 31
0.0
  0
POINT
  5
20C
330
18
100
AcDbEntity
  8
default
 62
     1
100
AcDbPoint
 10
2670.0
 20
573.0
 30
0.0
  0
LINE
  5
20D
330
18
100
AcDbEntity
  8
default
100
AcDbLine
 10
2538.0
 20
573.0
 30
0.0
 11
2670.0
 21
573.0
 31
0.0
  0
LINE
  5
20E
330
18
100
AcDbEntity
  8
default
100
AcDbLine
 10
2538.0
 20
399.0
 30
0.0
 11
2670.0
 21
399.0
 31
0.0
  0
LINE
  5
20F
330
18
100
AcDbEntity
  8
default
100
AcDbLine
 10
2538.0
 20
423.0
 30
0.0
 11
2670.0
 21
423.0
 31
0.0
  0
POINT
  5
210
330
18
100
AcDbEntity
  8
default
 62
     1
100
AcDbPoint
 10
3320.0
 20
561.0
 30
0.0
  0
POINT
  5
211
330
18
100
AcDbEntity
  8
default
 62
     1
100
AcDbPoint
 10
3310.0
 20
561.0
 30
0.0
  0
POINT
  5
212
330
18
100
AcDbEntity
  8
default
 62
     1
100
AcDbPoint
 10
3320.0
 20
561.0
 30
0.0
  0
POINT
  5
213
330
18
100
AcDbEntity
  8
default
 62
     1
100
AcDbPoint
 10
3320.0
 20
411.0
 30
0.0
  0
LINE
  5
214
330
18
100
AcDbEntity
  8
default
100
AcDbLine
 10
3322.0
 20
281.0
 30
0.0
 11
3322.0
 21
861.0
 31
0.0
  0
LINE
  5
215
330
18
100
AcDbEntity
  8
default
100
AcDbLine
 10
3302.0
 20
281.0
 30
0.0
 11
3302.0
 21
861.0
 31
0.0
  0
LINE
  5
216
330
18
100
AcDbEntity
  8
default
100
AcDbLine
 10
3302.0
 20
276.0
 30
0.0
 11
3302.0
 21
281.0
 31
0.0
  0
LINE
  5
217
330
18
100
AcDbEntity
  8
default
100
AcDbLine
 10
3322.0
 20
276.0
 30
0.0
 11
3322.0
 21
281.0
 31
0.0
  0
LINE
  5
218
330
18
100
AcDbEntity
  8
default
100
AcDbLine
 10
3302.0
 20
281.0
 30
0.0
 11
3322.0
 21
281.0
 31
0.0
  0
LINE
  5
219
330
18
100
AcDbEntity
  8
default
100
AcDbLine
 10
3302.0
 20
276.0
 30
0.0
 11
3322.0
 21
276.0
 31
0.0
  0
LINE
  5
21A
330
18
100
AcDbEntity
  8
default
100
AcDbLine
 10
3170.0
 20
549.0
 30
0.0
 11
3302.0
 21
549.0
 31
0.0
  0
LINE
  5
21B
330
18
100
AcDbEntity
  8
default
100
AcDbLine
 10
3170.0
 20
573.0
 30
0.0
 11
3302.0
 21
573.0
 31
0.0
  0
LINE
  5
21C
330
18
100
AcDbEntity
  8
default
100
AcDbLine
 10
3170.0
 20
399.0
 30
0.0
 11
3302.0
 21
399.0
 31
0.0
  0
LINE
  5
21D
330
18
100
AcDbEntity
  8
default
100
AcDbLine
 10
3170.0
 20
423.0
 30
0.0
 11
3302.0
 21
423.0
 31
0.0
  0
SOLID
  5
21E
330
18
100
AcDbEntity
  8
default
100
AcDbTrace
 10
3400.0
 20
561.0
 30
0.0
 11
3403.9083
 21
537.5115
 31
0.0
 12
3396.0917
 22
537.5115
 32
0.0
 13
3396.0917
 23
537.5115
 33
0.0
  0
SOLID
  5
21F
330
18
100
AcDbEntity
  8
default
100
AcDbTrace
 10
3400.0
 20
411.0
 30
0.0
 11
3396.0917
 21
434.4885
 31
0.0
 12
3403.9083
 22
434.4885
 32
0.0
 13
3403.9083
 23
434.4885
 33
0.0
  0
LINE
  5
220
330
18
100
AcDbEntity
  8
default
100
AcDbLine
 10
3400.0
 20
498.5208
 30
0.0
 11
3400.0
 21
561.0
 31
0.0
  0
LINE
  5
221
330
18
100
AcDbEntity
  8
default
100
AcDbLine
 10
3400.0
 20
411.0
 30
0.0
 11
3400.0
 21
461.4792
 31
0.0
  0
TEXT
  5
222
330
18
100
AcDbEntity
  8
default
100
AcDbText
 10
3364.3428
 20
471.8131
 30
0.0
 40
16.0421
  1
150mm
  7
Arial
100
AcDbText
  0
LINE
  5
223
330
18
100
AcDbEntity
  8
default
100
AcDbLine
 10
3327.9375
 20
561.0
 30
0.0
 11
3415.875
 21
561.0
 31
0.0
  0
LINE
  5
224
330
18
100
AcDbEntity
  8
default
100
AcDbLine
 10
3327.9375
 20
411.0
 30
0.0
 11
3415.875
 21
411.0
 31
0.0
  0
SOLID
  5
225
330
18
100
AcDbEntity
  8
default
100
AcDbTrace
 10
3919.657
 20
881.0
 30
0.0
 11
3923.5653
 21
857.5115
 31
0.0
 12
3915.7488
 22
857.5115
 32
0.0
 13
3915.7488
 23
857.5115
 33
0.0
  0
SOLID
  5
226
330
18
100
AcDbEntity
  8
default
100
AcDbTrace
 10
3919.657
 20
276.0
 30
0.0
 11
3915.7488
 21
299.4885
 31
0.0
 12
3923.5653
 22
299.4885
 32
0.0
 13
3923.5653
 23
299.4885
 33
0.0
  0
LINE
  5
227
330
18
100
AcDbEntity
  8
default
100
AcDbLine
 10
3919.657
 20
688.5208
 30
0.0
 11
3919.657
 21
881.0
 31
0.0
  0
LINE
  5
228
330
18
100
AcDbEntity
  8
default
100
AcDbLine
 10
3919.657
 20
276.0
 30
0.0
 11
3919.657
 21
651.4792
 31
0.0
  0
TEXT
  5
229
330
18
100
AcDbEntity
  8
default
100
AcDbText
 10
3883.1999
 20
661.8131
 30
0.0
 40
16.0421
  1
605mm
  7
Arial
100
AcDbText
  0
LINE
  5
22A
330
18
100
AcDbEntity
  8
default
100
AcDbLine
 10
3342.4375
 20
881.0
 30
0.0
 11
3935.532
 21
881.0
 31
0.0
  0
LINE
  5
22B
330
18
100
AcDbEntity
  8
default
100
AcDbLine
 10
3329.9375
 20
276.0
 30
0.0
 11
3935.532
 21
276.0
 31
0.0
  0
TEXT
  5
22C
330
18
100
AcDbEntity
  8
default
100
AcDbText
 10
3970.0
 20
630.0
 30
0.0
 40
16.0421
  1
with its height-adjusting legs.
  7
Arial
100
AcDbText
  0
LINE
  5
22D
330
18
100
AcDbEntity
  8
default
100
AcDbLine
 10
3244.5928
 20
398.2689
 30
0.0
 11
3358.2695
 21
305.5762
 31
0.0
  0
SOLID
  5
22E
330
18
100
AcDbEntity
  8
default
100
AcDbTrace
 10
3244.5928
 20
398.2689
 30
0.0
 11
3265.2665
 21
386.4644
 31
0.0
 12
3260.3269
 22
380.3863
 32
0.0
 13
3260.3269
 23
380.3863
 33
0.0
  0
LINE
  5
22F
330
18
100
AcDbEntity
  8
default
100
AcDbLine
 10
3358.2695
 20
305.5762
 30
0.0
 11
3371.3184
 21
305.5762
 31
0.0
  0
POINT
  5
230
330
18
100
AcDbEntity
  8
default
 62
     1
100
AcDbPoint
 10
2810.0
 20
536.0
 30
0.0
  0
POINT
  5
231
330
18
100
AcDbEntity
  8
default
 62
     1
100
AcDbPoint
 10
2810.0
 20
576.0
 30
0.0
  0
POINT
  5
232
330
18
100
AcDbEntity
  8
default
 62
     1
100
AcDbPoint
 10
2810.0
 20
496.0
 30
0.0
  0
POINT
  5
233
330
18
100
AcDbEntity
  8
default
 62
     1
100
AcDbPoint
 10
2810.0
 20
176.0
 30
0.0
  0
POINT
  5
234
330
18
100
AcDbEntity
  8
default
 62
     1
100
AcDbPoint
 10
2810.0
 20
216.0
 30
0.0
  0
POINT
  5
235
330
18
100
AcDbEntity
  8
default
 62
     1
100
AcDbPoint
 10
2810.0
 20
136.0
 30
0.0
  0
LINE
  5
236
330
18
100
AcDbEntity
  8
default
100
AcDbLine
 10
2810.0
 20
216.0
 30
0.0
 11
3030.0
 21
216.0
 31
0.0
  0
LINE
  5
237
330
18
100
AcDbEntity
  8
default
100
AcDbLine
 10
2810.0
 20
136.0
 30
0.0
 11
3030.0
 21
136.0
 31
0.0
  0
LINE
  5
238
330
18
100
AcDbEntity
  8
default
100
AcDbLine
 10
2810.0
 20
576.0
 30
0.0
 11
3030.0
 21
576.0
 31
0.0
  0
LINE
  5
239
330
18
100
AcDbEntity
  8
default
100
AcDbLine
 10
2810.0
 20
496.0
 30
0.0
 11
3030.0
 21
496.0
 31
0.0
  0
POINT
  5
23A
330
18
100
AcDbEntity
  8
default
 62
     1
100
AcDbPoint
 10
230.0
 20
176.0
 30
0.0
  0
POINT
  5
23B
330
18
100
AcDbEntity
  8
default
 62
     1
100
AcDbPoint
 10
230.0
 20
536.0
 30
0.0
  0
POINT
  5
23C
330
18
100
AcDbEntity
  8
default
 62
     1
100
AcDbPoint
 10
230.0
 20
576.0
 30
0.0
  0
POINT
  5
23D
330
18
100
AcDbEntity
  8
default
 62
     1
100
AcDbPoint
 10
230.0
 20
496.0
 30
0.0
  0
POINT
  5
23E
330
18
100
AcDbEntity
  8
default
 62
     1
100
AcDbPoint
 10
230.0
 20
216.0
 30
0.0
  0
POINT
  5
23F
330
18
100
AcDbEntity
  8
default
 62
     1
100
AcDbPoint
 10
230.0
 20
136.0
 30
0.0
  0
LINE
  5
240
330
18
100
AcDbEntity
  8
default
100
AcDbLine
 10
230.0
 20
216.0
 30
0.0
 11
750.0
 21
216.0
 31
0.0
  0
LINE
  5
241
330
18
100
AcDbEntity
  8
default
100
AcDbLine
 10
230.0
 20
136.0
 30
0.0
 11
750.0
 21
136.0
 31
0.0
  0
LINE
  5
242
330
18
100
AcDbEntity
  8
default
100
AcDbLine
 10
230.0
 20
576.0
 30
0.0
 11
750.0
 21
576.0
 31
0.0
  0
LINE
  5
243
330
18
100
AcDbEntity
  8
default
100
AcDbLine
 10
230.0
 20
496.0
 30
0.0
 11
750.0
 21
496.0
 31
0.0
  0
SOLID
  5
244
330
18
100
AcDbEntity
  8
default
100
AcDbTrace
 10
658.1191
 20
136.0
 30
0.0
 11
654.2109
 21
159.4885
 31
0.0
 12
662.0274
 22
159.4885
 32
0.0
 13
662.0274
 23
159.4885
 33
0.0
  0
SOLID
  5
245
330
18
100
AcDbEntity
  8
default
100
AcDbTrace
 10
658.1191
 20
81.0
 30
0.0
 11
662.0274
 21
57.5115
 31
0.0
 12
654.2109
 22
57.5115
 32
0.0
 13
654.2109
 23
57.5115
 33
0.0
  0
LINE
  5
246
330
18
100
AcDbEntity
  8
default
100
AcDbLine
 10
658.1191
 20
47.5042
 30
0.0
 11
658.1191
 21
81.0
 31
0.0
  0
LINE
  5
247
330
18
100
AcDbEntity
  8
default
100
AcDbLine
 10
658.1191
 20
136.0
 30
0.0
 11
658.1191
 21
183.625
 31
0.0
  0
LINE
  5
248
330
18
100
AcDbEntity
  8
default
100
AcDbLine
 10
658.1191
 20
47.5042
 30
0.0
 11
681.9316
 21
47.5042
 31
0.0
  0
TEXT
  5
249
330
18
100
AcDbEntity
  8
default
100
AcDbText
 10
689.8691
 20
39.3172
 30
0.0
 40
16.0421
  1
55.00
  7
Arial
100
AcDbText
  0
LINE
  5
24A
330
18
100
AcDbEntity
  8
default
100
AcDbLine
 10
642.2441
 20
81.0
 30
0.0
 11
742.0625
 21
81.0
 31
0.0
  0
SOLID
  5
24B
330
18
100
AcDbEntity
  8
default
100
AcDbTrace
 10
541.8192
 20
136.0
 30
0.0
 11
545.7275
 21
112.5115
 31
0.0
 12
537.911
 22
112.5115
 32
0.0
 13
537.911
 23
112.5115
 33
0.0
  0
SOLID
  5
24C
330
18
100
AcDbEntity
  8
default
100
AcDbTrace
 10
541.8192
 20
0.0
 30
0.0
 11
537.911
 21
23.4885
 31
0.0
 12
545.7275
 22
23.4885
 32
0.0
 13
545.7275
 23
23.4885
 33
0.0
  0
LINE
  5
24D
330
18
100
AcDbEntity
  8
default
100
AcDbLine
 10
541.8192
 20
85.2631
 30
0.0
 11
541.8192
 21
136.0
 31
0.0
  0
LINE
  5
24E
330
18
100
AcDbEntity
  8
default
100
AcDbLine
 10
541.8192
 20
0.0
 30
0.0
 11
541.8192
 21
48.2214
 31
0.0
  0
TEXT
  5
24F
330
18
100
AcDbEntity
  8
default
100
AcDbText
 10
509.1032
 20
58.5553
 30
0.0
 40
16.0421
  1
136.00
  7
Arial
100
AcDbText
  0
SOLID
  5
250
330
18
100
AcDbEntity
  8
default
100
AcDbTrace
 10
2864.788
 20
496.0
 30
0.0
 11
2868.6963
 21
472.5115
 31
0.0
 12
2860.8798
 22
472.5115
 32
0.0
 13
2860.8798
 23
472.5115
 33
0.0
  0
SOLID
  5
251
330
18
100
AcDbEntity
  8
default
100
AcDbTrace
 10
2864.788
 20
216.0
 30
0.0
 11
2860.8798
 21
239.4885
 31
0.0
 12
2868.6963
 22
239.4885
 32
0.0
 13
2868.6963
 23
239.4885
 33
0.0
  0
LINE
  5
252
330
18
100
AcDbEntity
  8
default
100
AcDbLine
 10
2864.788
 20
359.0605
 30
0.0
 11
2864.788
 21
496.0
 31
0.0
  0
LINE
  5
253
330
18
100
AcDbEntity
  8
default
100
AcDbLine
 10
2864.788
 20
216.0
 30
0.0
 11
2864.788
 21
322.0188
 31
0.0
  0
TEXT
  5
254
330
18
100
AcDbEntity
  8
default
100
AcDbText
 10
2828.2325
 20
332.3527
 30
0.0
 40
16.0421
  1
280mm
  7
Arial
100
AcDbText
  0
SOLID
  5
255
330
18
100
AcDbEntity
  8
default
100
AcDbTrace
 10
2810.0
 20
253.9424
 30
0.0
 11
2833.4885
 21
257.8637
 31
0.0
 12
2833.4885
 22
250.0212
 32
0.0
 13
2833.4885
 23
250.0212
 33
0.0
  0
SOLID
  5
256
330
18
100
AcDbEntity
  8
default
100
AcDbTrace
 10
3030.0
 20
253.9424
 30
0.0
 11
3006.5115
 21
250.0212
 31
0.0
 12
3006.5115
 22
257.8637
 32
0.0
 13
3006.5115
 23
257.8637
 33
0.0
  0
LINE
  5
257
330
18
100
AcDbEntity
  8
default
100
AcDbLine
 10
2810.0
 20
253.9424
 30
0.0
 11
2911.9837
 21
253.9424
 31
0.0
  0
LINE
  5
258
330
18
100
AcDbEntity
  8
default
100
AcDbLine
 10
3000.9698
 20
253.9424
 30
0.0
 11
3030.0
 21
253.9424
 31
0.0
  0
TEXT
  5
259
330
18
100
AcDbEntity
  8
default
100
AcDbText
 10
2919.9212
 20
245.7555
 30
0.0
 40
16.0421
  1
220mm
  7
Arial
100
AcDbText
  0
SOLID
  5
25A
330
18
100
AcDbEntity
  8
default
100
AcDbTrace
 10
2934.7403
 20
576.0
 30
0.0
 11
2938.6486
 21
552.5115
 31
0.0
 12
2930.832
 22
552.5115
 32
0.0
 13
2930.832
 23
552.5115
 33
0.0
  0
SOLID
  5
25B
330
18
100
AcDbEntity
  8
default
100
AcDbTrace
 10
2934.7403
 20
496.0
 30
0.0
 11
2930.832
 21
519.4885
 31
0.0
 12
2938.6486
 22
519.4885
 32
0.0
 13
2938.6486
 23
519.4885
 33
0.0
  0
LINE
  5
25C
330
18
100
AcDbEntity
  8
default
100
AcDbLine
 10
2934.7403
 20
472.9295
 30
0.0
 11
2934.7403
 21
576.0
 31
0.0
  0
LINE
  5
25D
330
18
100
AcDbEntity
  8
default
100
AcDbLine
 10
2934.7403
 20
472.9295
 30
0.0
 11
2958.5528
 21
472.9295
 31
0.0
  0
TEXT
  5
25E
330
18
100
AcDbEntity
  8
default
100
AcDbText
 10
2966.4903
 20
464.7425
 30
0.0
 40
16.0421
  1
80mm
  7
Arial
100
AcDbText
  0
SOLID
  5
25F
330
18
100
AcDbEntity
  8
default
100
AcDbTrace
 10
2946.7465
 20
712.5
 30
0.0
 11
2950.6548
 21
689.0115
 31
0.0
 12
2942.8383
 22
689.0115
 32
0.0
 13
2942.8383
 23
689.0115
 33
0.0
  0
SOLID
  5
260
330
18
100
AcDbEntity
  8
default
100
AcDbTrace
 10
2946.7465
 20
576.0
 30
0.0
 11
2942.8383
 21
599.4885
 31
0.0
 12
2950.6548
 22
599.4885
 32
0.0
 13
2950.6548
 23
599.4885
 33
0.0
  0
LINE
  5
261
330
18
100
AcDbEntity
  8
default
100
AcDbLine
 10
2946.7465
 20
664.9452
 30
0.0
 11
2946.7465
 21
712.5
 31
0.0
  0
LINE
  5
262
330
18
100
AcDbEntity
  8
default
100
AcDbLine
 10
2946.7465
 20
576.0
 30
0.0
 11
2946.7465
 21
627.9035
 31
0.0
  0
TEXT
  5
263
330
18
100
AcDbEntity
  8
default
100
AcDbText
 10
2901.6874
 20
638.2374
 30
0.0
 40
16.0421
  1
136.5mm
  7
Arial
100
AcDbText
  0
SOLID
  5
264
330
18
100
AcDbEntity
  8
default
100
AcDbTrace
 10
2853.0979
 20
661.0
 30
0.0
 11
2857.0061
 21
637.5115
 31
0.0
 12
2849.1896
 22
637.5115
 32
0.0
 13
2849.1896
 23
637.5115
 33
0.0
  0
SOLID
  5
265
330
18
100
AcDbEntity
  8
default
100
AcDbTrace
 10
2853.0979
 20
576.0
 30
0.0
 11
2849.1896
 21
599.4885
 31
0.0
 12
2857.0061
 22
599.4885
 32
0.0
 13
2857.0061
 23
599.4885
 33
0.0
  0
LINE
  5
266
330
18
100
AcDbEntity
  8
default
100
AcDbLine
 10
2853.0979
 20
635.5291
 30
0.0
 11
2853.0979
 21
661.0
 31
0.0
  0
LINE
  5
267
330
18
100
AcDbEntity
  8
default
100
AcDbLine
 10
2853.0979
 20
576.0
 30
0.0
 11
2853.0979
 21
598.4874
 31
0.0
  0
TEXT
  5
268
330
18
100
AcDbEntity
  8
default
100
AcDbText
 10
2822.9415
 20
608.8213
 30
0.0
 40
16.0421
  1
85mm
  7
Arial
100
AcDbText
  0
LINE
  5
269
330
18
100
AcDbEntity
  8
default
100
AcDbLine
 10
2817.9375
 20
661.0
 30
0.0
 11
2868.9729
 21
661.0
 31
0.0
  0
LINE
  5
26A
330
18
100
AcDbEntity
  8
default
100
AcDbLine
 10
2817.9375
 20
576.0
 30
0.0
 11
2868.9729
 21
576.0
 31
0.0
  0
SOLID
  5
26B
330
18
100
AcDbEntity
  8
default
100
AcDbTrace
 10
398.7218
 20
216.0
 30
0.0
 11
402.6301
 21
192.5115
 31
0.0
 12
394.8136
 22
192.5115
 32
0.0
 13
394.8136
 23
192.5115
 33
0.0
  0
SOLID
  5
26C
330
18
100
AcDbEntity
  8
default
100
AcDbTrace
 10
398.7218
 20
136.0
 30
0.0
 11
394.8136
 21
159.4885
 31
0.0
 12
402.6301
 22
159.4885
 32
0.0
 13
402.6301
 23
159.4885
 33
0.0
  0
LINE
  5
26D
330
18
100
AcDbEntity
  8
default
100
AcDbLine
 10
398.7218
 20
89.3197
 30
0.0
 11
398.7218
 21
216.0
 31
0.0
  0
LINE
  5
26E
330
18
100
AcDbEntity
  8
default
100
AcDbLine
 10
398.7218
 20
89.3197
 30
0.0
 11
422.5343
 21
89.3197
 31
0.0
  0
TEXT
  5
26F
330
18
100
AcDbEntity
  8
default
100
AcDbText
 10
430.4718
 20
81.1327
 30
0.0
 40
16.0421
  1
80mm
  7
Arial
100
AcDbText
  0
SOLID
  5
270
330
18
100
AcDbEntity
  8
default
100
AcDbTrace
 10
230.0
 20
291.4783
 30
0.0
 11
253.4885
 21
295.3995
 31
0.0
 12
253.4885
 22
287.557
 32
0.0
 13
253.4885
 23
287.557
 33
0.0
  0
SOLID
  5
271
330
18
100
AcDbEntity
  8
default
100
AcDbTrace
 10
750.0
 20
291.4783
 30
0.0
 11
726.5115
 21
287.557
 31
0.0
 12
726.5115
 22
295.3995
 32
0.0
 13
726.5115
 23
295.3995
 33
0.0
  0
LINE
  5
272
330
18
100
AcDbEntity
  8
default
100
AcDbLine
 10
230.0
 20
291.4783
 30
0.0
 11
501.8399
 21
291.4783
 31
0.0
  0
LINE
  5
273
330
18
100
AcDbEntity
  8
default
100
AcDbLine
 10
590.543
 20
291.4783
 30
0.0
 11
750.0
 21
291.4783
 31
0.0
  0
TEXT
  5
274
330
18
100
AcDbEntity
  8
default
100
AcDbText
 10
509.7774
 20
283.2913
 30
0.0
 40
16.0421
  1
520mm
  7
Arial
100
AcDbText
  0
SOLID
  5
275
330
18
100
AcDbEntity
  8
default
100
AcDbTrace
 10
657.2447
 20
496.0
 30
0.0
 11
661.153
 21
472.5115
 31
0.0
 12
653.3365
 22
472.5115
 32
0.0
 13
653.3365
 23
472.5115
 33
0.0
  0
SOLID
  5
276
330
18
100
AcDbEntity
  8
default
100
AcDbTrace
 10
657.2447
 20
216.0
 30
0.0
 11
653.3365
 21
239.4885
 31
0.0
 12
661.153
 22
239.4885
 32
0.0
 13
661.153
 23
239.4885
 33
0.0
  0
LINE
  5
277
330
18
100
AcDbEntity
  8
default
100
AcDbLine
 10
657.2447
 20
366.8389
 30
0.0
 11
657.2447
 21
496.0
 31
0.0
  0
LINE
  5
278
330
18
100
AcDbEntity
  8
default
100
AcDbLine
 10
657.2447
 20
216.0
 30
0.0
 11
657.2447
 21
329.7973
 31
0.0
  0
TEXT
  5
279
330
18
100
AcDbEntity
  8
default
100
AcDbText
 10
620.6891
 20
340.1311
 30
0.0
 40
16.0421
  1
280mm
  7
Arial
100
AcDbText
  0
SOLID
  5
27A
330
18
100
AcDbEntity
  8
default
100
AcDbTrace
 10
525.988
 20
712.5
 30
0.0
 11
529.8962
 21
689.0115
 31
0.0
 12
522.0797
 22
689.0115
 32
0.0
 13
522.0797
 23
689.0115
 33
0.0
  0
SOLID
  5
27B
330
18
100
AcDbEntity
  8
default
100
AcDbTrace
 10
525.988
 20
576.0
 30
0.0
 11
522.0797
 21
599.4885
 31
0.0
 12
529.8962
 22
599.4885
 32
0.0
 13
529.8962
 23
599.4885
 33
0.0
  0
LINE
  5
27C
330
18
100
AcDbEntity
  8
default
100
AcDbLine
 10
525.988
 20
656.5406
 30
0.0
 11
525.988
 21
712.5
 31
0.0
  0
LINE
  5
27D
330
18
100
AcDbEntity
  8
default
100
AcDbLine
 10
525.988
 20
576.0
 30
0.0
 11
525.988
 21
619.4989
 31
0.0
  0
SOLID
  5
27E
330
18
100
AcDbEntity
  8
default
100
AcDbTrace
 10
658.1191
 20
661.0
 30
0.0
 11
662.0274
 21
637.5115
 31
0.0
 12
654.2109
 22
637.5115
 32
0.0
 13
654.2109
 23
637.5115
 33
0.0
  0
SOLID
  5
27F
330
18
100
AcDbEntity
  8
default
100
AcDbTrace
 10
658.1191
 20
576.0
 30
0.0
 11
654.2109
 21
599.4885
 31
0.0
 12
662.0274
 22
599.4885
 32
0.0
 13
662.0274
 23
599.4885
 33
0.0
  0
LINE
  5
280
330
18
100
AcDbEntity
  8
default
100
AcDbLine
 10
658.1191
 20
636.1723
 30
0.0
 11
658.1191
 21
661.0
 31
0.0
  0
LINE
  5
281
330
18
100
AcDbEntity
  8
default
100
AcDbLine
 10
658.1191
 20
576.0
 30
0.0
 11
658.1191
 21
599.1307
 31
0.0
  0
TEXT
  5
282
330
18
100
AcDbEntity
  8
default
100
AcDbText
 10
627.9628
 20
609.4646
 30
0.0
 40
16.0421
  1
85mm
  7
Arial
100
AcDbText
  0
LINE
  5
283
330
18
100
AcDbEntity
  8
default
100
AcDbLine
 10
642.2441
 20
661.0
 30
0.0
 11
742.0625
 21
661.0
 31
0.0
  0
SOLID
  5
284
330
18
100
AcDbEntity
  8
default
100
AcDbTrace
 10
341.0919
 20
576.0
 30
0.0
 11
345.0001
 21
552.5115
 31
0.0
 12
337.1836
 22
552.5115
 32
0.0
 13
337.1836
 23
552.5115
 33
0.0
  0
SOLID
  5
285
330
18
100
AcDbEntity
  8
default
100
AcDbTrace
 10
341.0919
 20
496.0
 30
0.0
 11
337.1836
 21
519.4885
 31
0.0
 12
345.0001
 22
519.4885
 32
0.0
 13
345.0001
 23
519.4885
 33
0.0
  0
LINE
  5
286
330
18
100
AcDbEntity
  8
default
100
AcDbLine
 10
341.0919
 20
496.0
 30
0.0
 11
341.0919
 21
623.6119
 31
0.0
  0
LINE
  5
287
330
18
100
AcDbEntity
  8
default
100
AcDbLine
 10
341.0919
 20
623.6119
 30
0.0
 11
364.9044
 21
623.6119
 31
0.0
  0
TEXT
  5
288
330
18
100
AcDbEntity
  8
default
100
AcDbText
 10
372.8419
 20
615.4249
 30
0.0
 40
16.0421
  1
80mm
  7
Arial
100
AcDbText
  0
SOLID
  5
289
330
18
100
AcDbEntity
  8
default
100
AcDbTrace
 10
800.0
 20
535.4523
 30
0.0
 11
776.5115
 21
531.5311
 31
0.0
 12
776.5115
 22
539.3736
 32
0.0
 13
776.5115
 23
539.3736
 33
0.0
  0
SOLID
  5
28A
330
18
100
AcDbEntity
  8
default
100
AcDbTrace
 10
840.0
 20
535.4523
 30
0.0
 11
863.4885
 21
539.3736
 31
0.0
 12
863.4885
 22
531.5311
 32
0.0
 13
863.4885
 23
531.5311
 33
0.0
  0
LINE
  5
28B
330
18
100
AcDbEntity
  8
default
100
AcDbLine
 10
840.0
 20
535.4523
 30
0.0
 11
927.3777
 21
535.4523
 31
0.0
  0
LINE
  5
28C
330
18
100
AcDbEntity
  8
default
100
AcDbLine
 10
752.375
 20
535.4523
 30
0.0
 11
800.0
 21
535.4523
 31
0.0
  0
TEXT
  5
28D
330
18
100
AcDbEntity
  8
default
100
AcDbText
 10
935.3152
 20
527.2654
 30
0.0
 40
16.0421
  1
40mm
  7
Arial
100
AcDbText
  0
SOLID
  5
28E
330
18
100
AcDbEntity
  8
default
100
AcDbTrace
 10
750.0
 20
243.0037
 30
0.0
 11
773.4885
 21
246.925
 31
0.0
 12
773.4885
 22
239.0825
 32
0.0
 13
773.4885
 23
239.0825
 33
0.0
  0
SOLID
  5
28F
330
18
100
AcDbEntity
  8
default
100
AcDbTrace
 10
890.0
 20
243.0037
 30
0.0
 11
866.5115
 21
239.0825
 31
0.0
 12
866.5115
 22
246.925
 32
0.0
 13
866.5115
 23
246.925
 33
0.0
  0
LINE
  5
290
330
18
100
AcDbEntity
  8
default
100
AcDbLine
 10
750.0
 20
243.0037
 30
0.0
 11
940.6702
 21
243.0037
 31
0.0
  0
TEXT
  5
291
330
18
100
AcDbEntity
  8
default
100
AcDbText
 10
948.6077
 20
234.8168
 30
0.0
 40
16.0421
  1
140mm
  7
Arial
100
AcDbText
  0
POINT
  5
292
330
18
100
AcDbEntity
  8
default
 62
     1
100
AcDbPoint
 10
3289.5
 20
881.0
 30
0.0
  0
POINT
  5
293
330
18
100
AcDbEntity
  8
default
 62
     1
100
AcDbPoint
 10
3334.5
 20
861.0
 30
0.0
  0
LINE
  5
294
330
18
100
AcDbEntity
  8
default
100
AcDbLine
 10
3289.5
 20
861.0
 30
0.0
 11
3289.5
 21
881.0
 31
0.0
  0
LINE
  5
295
330
18
100
AcDbEntity
  8
default
100
AcDbLine
 10
3334.5
 20
861.0
 30
0.0
 11
3334.5
 21
881.0
 31
0.0
  0
LINE
  5
296
330
18
100
AcDbEntity
  8
default
100
AcDbLine
 10
3289.5
 20
881.0
 30
0.0
 11
3334.5
 21
881.0
 31
0.0
  0
LINE
  5
297
330
18
100
AcDbEntity
  8
default
100
AcDbLine
 10
3289.5
 20
861.0
 30
0.0
 11
3334.5
 21
861.0
 31
0.0
  0
POINT
  5
298
330
18
100
AcDbEntity
  8
default
 62
     1
100
AcDbPoint
 10
2505.5
 20
881.0
 30
0.0
  0
POINT
  5
299
330
18
100
AcDbEntity
  8
default
 62
     1
100
AcDbPoint
 10
2550.5
 20
861.0
 30
0.0
  0
LINE
  5
29A
330
18
100
AcDbEntity
  8
default
100
AcDbLine
 10
2505.5
 20
861.0
 30
0.0
 11
2505.5
 21
881.0
 31
0.0
  0
LINE
  5
29B
330
18
100
AcDbEntity
  8
default
100
AcDbLine
 10
2550.5
 20
861.0
 30
0.0
 11
2550.5
 21
881.0
 31
0.0
  0
LINE
  5
29C
330
18
100
AcDbEntity
  8
default
100
AcDbLine
 10
2505.5
 20
881.0
 30
0.0
 11
2550.5
 21
881.0
 31
0.0
  0
LINE
  5
29D
330
18
100
AcDbEntity
  8
default
100
AcDbLine
 10
2505.5
 20
861.0
 30
0.0
 11
2550.5
 21
861.0
 31
0.0
  0
SOLID
  5
29E
330
18
100
AcDbEntity
  8
default
100
AcDbTrace
 10
3289.5
 20
970.228
 30
0.0
 11
3266.0115
 21
966.3068
 31
0.0
 12
3266.0115
 22
974.1493
 32
0.0
 13
3266.0115
 23
974.1493
 33
0.0
  0
SOLID
  5
29F
330
18
100
AcDbEntity
  8
default
100
AcDbTrace
 10
3334.5
 20
970.228
 30
0.0
 11
3357.9885
 21
974.1493
 31
0.0
 12
3357.9885
 22
966.3068
 32
0.0
 13
3357.9885
 23
966.3068
 33
0.0
  0
LINE
  5
2A0
330
18
100
AcDbEntity
  8
default
100
AcDbLine
 10
3334.5
 20
970.228
 30
0.0
 11
3390.4048
 21
970.228
 31
0.0
  0
LINE
  5
2A1
330
18
100
AcDbEntity
  8
default
100
AcDbLine
 10
3241.875
 20
970.228
 30
0.0
 11
3289.5
 21
970.228
 31
0.0
  0
TEXT
  5
2A2
330
18
100
AcDbEntity
  8
default
100
AcDbText
 10
3398.3423
 20
962.0411
 30
0.0
 40
16.0421
  1
45mm
  7
Arial
100
AcDbText
  0
LINE
  5
2A3
330
18
100
AcDbEntity
  8
default
100
AcDbLine
 10
3289.5
 20
888.9375
 30
0.0
 11
3289.5
 21
986.103
 31
0.0
  0
LINE
  5
2A4
330
18
100
AcDbEntity
  8
default
100
AcDbLine
 10
3334.5
 20
888.9375
 30
0.0
 11
3334.5
 21
986.103
 31
0.0
  0
SOLID
  5
2A5
330
18
100
AcDbEntity
  8
default
100
AcDbTrace
 10
3375.8683
 20
881.0
 30
0.0
 11
3371.9601
 21
904.4885
 31
0.0
 12
3379.7766
 22
904.4885
 32
0.0
 13
3379.7766
 23
904.4885
 33
0.0
  0
SOLID
  5
2A6
330
18
100
AcDbEntity
  8
default
100
AcDbTrace
 10
3375.8683
 20
861.0
 30
0.0
 11
3379.7766
 21
837.5115
 31
0.0
 12
3371.9601
 22
837.5115
 32
0.0
 13
3371.9601
 23
837.5115
 33
0.0
  0
LINE
  5
2A7
330
18
100
AcDbEntity
  8
default
100
AcDbLine
 10
3375.8683
 20
881.0
 30
0.0
 11
3375.8683
 21
929.1936
 31
0.0
  0
LINE
  5
2A8
330
18
100
AcDbEntity
  8
default
100
AcDbLine
 10
3375.8683
 20
813.375
 30
0.0
 11
3375.8683
 21
861.0
 31
0.0
  0
LINE
  5
2A9
330
18
100
AcDbEntity
  8
default
100
AcDbLine
 10
3375.8683
 20
929.1936
 30
0.0
 11
3399.6808
 21
929.1936
 31
0.0
  0
TEXT
  5
2AA
330
18
100
AcDbEntity
  8
default
100
AcDbText
 10
3407.6183
 20
921.0067
 30
0.0
 40
16.0421
  1
20mm
  7
Arial
100
AcDbText
  0
LINE
  5
2AB
330
18
100
AcDbEntity
  8
default
100
AcDbLine
 10
3342.4375
 20
861.0
 30
0.0
 11
3391.7433
 21
861.0
 31
0.0
  0
LINE
  5
2AC
330
18
100
AcDbEntity
  8
default
100
AcDbLine
 10
3342.4375
 20
881.0
 30
0.0
 11
3391.7433
 21
881.0
 31
0.0
  0
SOLID
  5
2AD
330
18
100
AcDbEntity
  8
default
100
AcDbTrace
 10
3473.0516
 20
822.5
 30
0.0
 11
3476.9599
 21
799.0115
 31
0.0
 12
3469.1434
 22
799.0115
 32
0.0
 13
3469.1434
 23
799.0115
 33
0.0
  0
SOLID
  5
2AE
330
18
100
AcDbEntity
  8
default
100
AcDbTrace
 10
3473.0516
 20
712.5
 30
0.0
 11
3469.1434
 21
735.9885
 31
0.0
 12
3476.9599
 22
735.9885
 32
0.0
 13
3476.9599
 23
735.9885
 33
0.0
  0
LINE
  5
2AF
330
18
100
AcDbEntity
  8
default
100
AcDbLine
 10
3473.0516
 20
784.8664
 30
0.0
 11
3473.0516
 21
822.5
 31
0.0
  0
LINE
  5
2B0
330
18
100
AcDbEntity
  8
default
100
AcDbLine
 10
3473.0516
 20
712.5
 30
0.0
 11
3473.0516
 21
747.8248
 31
0.0
  0
TEXT
  5
2B1
330
18
100
AcDbEntity
  8
default
100
AcDbText
 10
3437.3944
 20
758.1587
 30
0.0
 40
16.0421
  1
110mm
  7
Arial
100
AcDbText
  0
LINE
  5
2B2
330
18
100
AcDbEntity
  8
default
100
AcDbLine
 10
3257.9375
 20
822.5
 30
0.0
 11
3488.9266
 21
822.5
 31
0.0
  0
LINE
  5
2B3
330
18
100
AcDbEntity
  8
default
100
AcDbLine
 10
3257.9375
 20
712.5
 30
0.0
 11
3488.9266
 21
712.5
 31
0.0
  0
SOLID
  5
2B4
330
18
100
AcDbEntity
  8
default
100
AcDbTrace
 10
3030.0
 20
188.9742
 30
0.0
 11
3053.4885
 21
192.8954
 31
0.0
 12
3053.4885
 22
185.0529
 32
0.0
 13
3053.4885
 23
185.0529
 33
0.0
  0
SOLID
  5
2B5
330
18
100
AcDbEntity
  8
default
100
AcDbTrace
 10
3170.0
 20
188.9742
 30
0.0
 11
3146.5115
 21
185.0529
 31
0.0
 12
3146.5115
 22
192.8954
 32
0.0
 13
3146.5115
 23
192.8954
 33
0.0
  0
LINE
  5
2B6
330
18
100
AcDbEntity
  8
default
100
AcDbLine
 10
3030.0
 20
188.9742
 30
0.0
 11
3212.2512
 21
188.9742
 31
0.0
  0
TEXT
  5
2B7
330
18
100
AcDbEntity
  8
default
100
AcDbText
 10
3220.1887
 20
180.7872
 30
0.0
 40
16.0421
  1
140mm
  7
Arial
100
AcDbText
  0
SOLID
  5
2B8
330
18
100
AcDbEntity
  8
default
100
AcDbTrace
 10
2590.0
 20
931.1597
 30
0.0
 11
2613.4885
 21
935.081
 31
0.0
 12
2613.4885
 22
927.2385
 32
0.0
 13
2613.4885
 23
927.2385
 33
0.0
  0
SOLID
  5
2B9
330
18
100
AcDbEntity
  8
default
100
AcDbTrace
 10
3250.0
 20
931.1597
 30
0.0
 11
3226.5115
 21
927.2385
 31
0.0
 12
3226.5115
 22
935.081
 32
0.0
 13
3226.5115
 23
935.081
 33
0.0
  0
LINE
  5
2BA
330
18
100
AcDbEntity
  8
default
100
AcDbLine
 10
2590.0
 20
931.1597
 30
0.0
 11
2872.6054
 21
931.1597
 31
0.0
  0
LINE
  5
2BB
330
18
100
AcDbEntity
  8
default
100
AcDbLine
 10
2961.3946
 20
931.1597
 30
0.0
 11
3250.0
 21
931.1597
 31
0.0
  0
TEXT
  5
2BC
330
18
100
AcDbEntity
  8
default
100
AcDbText
 10
2880.5429
 20
922.9728
 30
0.0
 40
16.0421
  1
660mm
  7
Arial
100
AcDbText
  0
LINE
  5
2BD
330
18
100
AcDbEntity
  8
default
100
AcDbLine
 10
2590.0
 20
830.4375
 30
0.0
 11
2590.0
 21
947.0347
 31
0.0
  0
LINE
  5
2BE
330
18
100
AcDbEntity
  8
default
100
AcDbLine
 10
3250.0
 20
830.4375
 30
0.0
 11
3250.0
 21
947.0347
 31
0.0
  0
LINE
  5
2BF
330
18
100
AcDbEntity
  8
default
100
AcDbLine
 10
560.9074
 20
218.4049
 30
0.0
 11
942.7059
 21
328.8653
 31
0.0
  0
SOLID
  5
2C0
330
18
100
AcDbEntity
  8
default
100
AcDbTrace
 10
560.9074
 20
218.4049
 30
0.0
 11
582.3844
 21
228.6996
 31
0.0
 12
584.5568
 22
221.166
 32
0.0
 13
584.5568
 23
221.166
 33
0.0
  0
LINE
  5
2C1
330
18
100
AcDbEntity
  8
default
100
AcDbLine
 10
942.7059
 20
328.8653
 30
0.0
 11
973.1884
 21
328.8653
 31
0.0
  0
LINE
  5
2C2
330
18
100
AcDbEntity
  8
default
100
AcDbLine
 10
558.5062
 20
496.9572
 30
0.0
 11
942.7059
 21
328.8653
 31
0.0
  0
SOLID
  5
2C3
330
18
100
AcDbEntity
  8
default
100
AcDbTrace
 10
558.5062
 20
496.9572
 30
0.0
 11
581.5918
 21
491.1349
 31
0.0
 12
578.4587
 22
483.9499
 32
0.0
 13
578.4587
 23
483.9499
 33
0.0
  0
LINE
  5
2C4
330
18
100
AcDbEntity
  8
default
100
AcDbLine
 10
942.7059
 20
328.8653
 30
0.0
 11
973.1884
 21
328.8653
 31
0.0
  0
LINE
  5
2C5
330
18
100
AcDbEntity
  8
default
100
AcDbLine
 10
2894.9209
 20
496.9572
 30
0.0
 11
3223.8919
 21
76.7274
 31
0.0
  0
SOLID
  5
2C6
330
18
100
AcDbEntity
  8
default
100
AcDbTrace
 10
2894.9209
 20
496.9572
 30
0.0
 11
2912.4771
 21
480.8791
 31
0.0
 12
2906.3222
 22
476.0448
 32
0.0
 13
2906.3222
 23
476.0448
 33
0.0
  0
LINE
  5
2C7
330
18
100
AcDbEntity
  8
default
100
AcDbLine
 10
3223.8919
 20
76.7274
 30
0.0
 11
3249.5719
 21
76.7274
 31
0.0
  0
SOLID
  5
2C8
330
18
100
AcDbEntity
  8
default
100
AcDbTrace
 10
2914.1309
 20
216.0
 30
0.0
 11
2918.0391
 21
192.5115
 31
0.0
 12
2910.2226
 22
192.5115
 32
0.0
 13
2910.2226
 23
192.5115
 33
0.0
  0
SOLID
  5
2C9
330
18
100
AcDbEntity
  8
default
100
AcDbTrace
 10
2914.1309
 20
136.0
 30
0.0
 11
2910.2226
 21
159.4885
 31
0.0
 12
2918.0391
 22
159.4885
 32
0.0
 13
2918.0391
 23
159.4885
 33
0.0
  0
LINE
  5
2CA
330
18
100
AcDbEntity
  8
default
100
AcDbLine
 10
2914.1309
 20
74.3261
 30
0.0
 11
2914.1309
 21
216.0
 31
0.0
  0
LINE
  5
2CB
330
18
100
AcDbEntity
  8
default
100
AcDbLine
 10
2914.1309
 20
74.3261
 30
0.0
 11
2937.9434
 21
74.3261
 31
0.0
  0
TEXT
  5
2CC
330
18
100
AcDbEntity
  8
default
100
AcDbText
 10
2945.8809
 20
66.1392
 30
0.0
 40
16.0421
  1
80mm
  7
Arial
100
AcDbText
  0
SOLID
  5
2CD
330
18
100
AcDbEntity
  8
default
100
AcDbTrace
 10
3350.0
 20
423.0
 30
0.0
 11
3346.0917
 21
446.4885
 31
0.0
 12
3353.9083
 22
446.4885
 32
0.0
 13
3353.9083
 23
446.4885
 33
0.0
  0
SOLID
  5
2CE
330
18
100
AcDbEntity
  8
default
100
AcDbTrace
 10
3350.0
 20
399.0
 30
0.0
 11
3353.9083
 21
375.5115
 31
0.0
 12
3346.0917
 22
375.5115
 32
0.0
 13
3346.0917
 23
375.5115
 33
0.0
  0
LINE
  5
2CF
330
18
100
AcDbEntity
  8
default
100
AcDbLine
 10
3350.0
 20
354.8247
 30
0.0
 11
3350.0
 21
399.0
 31
0.0
  0
LINE
  5
2D0
330
18
100
AcDbEntity
  8
default
100
AcDbLine
 10
3350.0
 20
423.0
 30
0.0
 11
3350.0
 21
470.625
 31
0.0
  0
LINE
  5
2D1
330
18
100
AcDbEntity
  8
default
100
AcDbLine
 10
3350.0
 20
354.8247
 30
0.0
 11
3373.8125
 21
354.8247
 31
0.0
  0
LINE
  5
2D2
330
18
100
AcDbEntity
  8
default
100
AcDbLine
 10
3309.9375
 20
423.0
 30
0.0
 11
3365.875
 21
423.0
 31
0.0
  0
LINE
  5
2D3
330
18
100
AcDbEntity
  8
default
100
AcDbLine
 10
3309.9375
 20
399.0
 30
0.0
 11
3365.875
 21
399.0
 31
0.0
  0
TEXT
  5
2D4
330
18
100
AcDbEntity
  8
default
100
AcDbText
 10
3970.0
 20
661.8131
 30
0.0
 40
16.0421
  1
Length of the stainless armrest
  7
Arial
100
AcDbText
  0
LINE
  5
2D5
330
18
100
AcDbEntity
  8
default
100
AcDbLine
 10
981.2476
 20
753.8368
 30
0.0
 11
1008.9865
 21
686.4161
 31
0.0
  0
SOLID
  5
2D6
330
18
100
AcDbEntity
  8
default
100
AcDbTrace
 10
981.2476
 20
753.8368
 30
0.0
 11
993.7989
 21
733.6069
 31
0.0
 12
986.5703
 22
730.6229
 32
0.0
 13
986.5703
 23
730.6229
 33
0.0
  0
LINE
  5
2D7
330
18
100
AcDbEntity
  8
default
100
AcDbLine
 10
1008.9865
 20
686.4161
 30
0.0
 11
1094.3197
 21
686.4161
 31
0.0
  0
SOLID
  5
2D8
330
18
100
AcDbEntity
  8
default
100
AcDbTrace
 10
1391.0228
 20
822.5
 30
0.0
 11
1394.931
 21
799.0115
 31
0.0
 12
1387.1145
 22
799.0115
 32
0.0
 13
1387.1145
 23
799.0115
 33
0.0
  0
SOLID
  5
2D9
330
18
100
AcDbEntity
  8
default
100
AcDbTrace
 10
1391.0228
 20
0.0
 30
0.0
 11
1387.1145
 21
23.4885
 31
0.0
 12
1394.931
 22
23.4885
 32
0.0
 13
1394.931
 23
23.4885
 33
0.0
  0
LINE
  5
2DA
330
18
100
AcDbEntity
  8
default
100
AcDbLine
 10
1391.0228
 20
414.5815
 30
0.0
 11
1391.0228
 21
822.5
 31
0.0
  0
LINE
  5
2DB
330
18
100
AcDbEntity
  8
default
100
AcDbLine
 10
1391.0228
 20
0.0
 30
0.0
 11
1391.0228
 21
377.5398
 31
0.0
  0
TEXT
  5
2DC
330
18
100
AcDbEntity
  8
default
100
AcDbText
 10
1344.8991
 20
387.8737
 30
0.0
 40
16.0421
  1
~ 823mm
  7
Arial
100
AcDbText
  0
LINE
  5
2DD
330
18
100
AcDbEntity
  8
default
100
AcDbLine
 10
987.9375
 20
822.5
 30
0.0
 11
1406.8978
 21
822.5
 31
0.0
  0
LINE
  5
2DE
330
18
100
AcDbEntity
  8
default
100
AcDbLine
 10
987.9375
 20
0.0
 30
0.0
 11
1406.8978
 21
0.0
 31
0.0
  0
LINE
  5
2DF
330
18
100
AcDbEntity
  8
default
100
AcDbLine
 10
851.7625
 20
29.7656
 30
0.0
 11
963.1422
 21
107.4032
 31
0.0
  0
SOLID
  5
2E0
330
18
100
AcDbEntity
  8
default
100
AcDbTrace
 10
851.7625
 20
29.7656
 30
0.0
 11
868.7968
 21
46.4141
 31
0.0
 12
873.2665
 22
39.9804
 32
0.0
 13
873.2665
 23
39.9804
 33
0.0
  0
LINE
  5
2E1
330
18
100
AcDbEntity
  8
default
100
AcDbLine
 10
963.1422
 20
107.4032
 30
0.0
 11
1006.3127
 21
107.4032
 31
0.0
  0
TEXT
  5
2E2
330
18
100
AcDbEntity
  8
default
100
AcDbText
 10
1014.2502
 20
99.2163
 30
0.0
 40
16.0421
  1
Adjustable leg-chock 75mm +/-20 mm
  7
Arial
100
AcDbText
  0
SOLID
  5
2E3
330
18
100
AcDbEntity
  8
default
100
AcDbTrace
 10
995.403
 20
81.0
 30
0.0
 11
999.3112
 21
57.5115
 31
0.0
 12
991.4947
 22
57.5115
 32
0.0
 13
991.4947
 23
57.5115
 33
0.0
  0
SOLID
  5
2E4
330
18
100
AcDbEntity
  8
default
100
AcDbTrace
 10
995.403
 20
0.0
 30
0.0
 11
991.4947
 21
23.4885
 31
0.0
 12
999.3112
 22
23.4885
 32
0.0
 13
999.3112
 23
23.4885
 33
0.0
  0
LINE
  5
2E5
330
18
100
AcDbEntity
  8
default
100
AcDbLine
 10
995.403
 20
-40.3214
 30
0.0
 11
995.403
 21
81.0
 31
0.0
  0
LINE
  5
2E6
330
18
100
AcDbEntity
  8
default
100
AcDbLine
 10
995.403
 20
-40.3214
 30
0.0
 11
1019.2155
 21
-40.3214
 31
0.0
  0
TEXT
  5
2E7
330
18
100
AcDbEntity
  8
default
100
AcDbText
 10
1027.153
 20
-48.5084
 30
0.0
 40
16.0421
  1
81mm      According to adjustable leg-chocks
  7
Arial
100
AcDbText
  0
LINE
  5
2E8
330
18
100
AcDbEntity
  8
default
100
AcDbLine
 10
897.9375
 20
81.0
 30
0.0
 11
1011.278
 21
81.0
 31
0.0
  0
SOLID
  5
2E9
330
18
100
AcDbEntity
  8
default
100
AcDbTrace
 10
1024.102
 20
881.0
 30
0.0
 11
1020.1937
 21
904.4885
 31
0.0
 12
1028.0102
 22
904.4885
 32
0.0
 13
1028.0102
 23
904.4885
 33
0.0
  0
SOLID
  5
2EA
330
18
100
AcDbEntity
  8
default
100
AcDbTrace
 10
1024.102
 20
822.5
 30
0.0
 11
1028.0102
 21
799.0115
 31
0.0
 12
1020.1937
 22
799.0115
 32
0.0
 13
1020.1937
 23
799.0115
 33
0.0
  0
LINE
  5
2EB
330
18
100
AcDbEntity
  8
default
100
AcDbLine
 10
1024.102
 20
881.0
 30
0.0
 11
1024.102
 21
932.7074
 31
0.0
  0
LINE
  5
2EC
330
18
100
AcDbEntity
  8
default
100
AcDbLine
 10
1024.102
 20
774.875
 30
0.0
 11
1024.102
 21
822.5
 31
0.0
  0
LINE
  5
2ED
330
18
100
AcDbEntity
  8
default
100
AcDbLine
 10
1024.102
 20
932.7074
 30
0.0
 11
1047.9145
 21
932.7074
 31
0.0
  0
LINE
  5
2EE
330
18
100
AcDbEntity
  8
default
100
AcDbLine
 10
987.9375
 20
881.0
 30
0.0
 11
1039.977
 21
881.0
 31
0.0
  0
LINE
  5
2EF
330
18
100
AcDbEntity
  8
default
100
AcDbLine
 10
987.9375
 20
822.5
 30
0.0
 11
1039.977
 21
822.5
 31
0.0
  0
SOLID
  5
2F0
330
18
100
AcDbEntity
  8
default
100
AcDbTrace
 10
90.0
 20
-72.7924
 30
0.0
 11
113.4885
 21
-68.8712
 31
0.0
 12
113.4885
 22
-76.7137
 32
0.0
 13
113.4885
 23
-76.7137
 33
0.0
  0
SOLID
  5
2F1
330
18
100
AcDbEntity
  8
default
100
AcDbTrace
 10
890.0
 20
-72.7924
 30
0.0
 11
866.5115
 21
-76.7137
 31
0.0
 12
866.5115
 22
-68.8712
 32
0.0
 13
866.5115
 23
-68.8712
 33
0.0
  0
LINE
  5
2F2
330
18
100
AcDbEntity
  8
default
100
AcDbLine
 10
90.0
 20
-72.7924
 30
0.0
 11
984.2004
 21
-72.7924
 31
0.0
  0
TEXT
  5
2F3
330
18
100
AcDbEntity
  8
default
100
AcDbText
 10
992.1379
 20
-80.9794
 30
0.0
 40
16.0421
  1
800mm
  7
Arial
100
AcDbText
  0
LINE
  5
2F4
330
18
100
AcDbEntity
  8
default
100
AcDbLine
 10
90.0
 20
-88.6674
 30
0.0
 11
90.0
 21
73.0625
 31
0.0
  0
LINE
  5
2F5
330
18
100
AcDbEntity
  8
default
100
AcDbLine
 10
890.0
 20
-88.6674
 30
0.0
 11
890.0
 21
73.0625
 31
0.0
  0
TEXT
  5
2F6
330
18
100
AcDbEntity
  8
default
100
AcDbText
 10
1084.8275
 20
-95.5821
 30
0.0
 40
16.0421
  1
Longer side of the leg-assembly.
  7
Arial
100
AcDbText
  0
TEXT
  5
2F7
330
18
100
AcDbEntity
  8
default
100
AcDbText
 10
1084.8275
 20
-125.5821
 30
0.0
 40
16.0421
  1
The length of the longer side is 815mm including the edges of the working-cylinders.
  7
Arial
100
AcDbText
  0
LINE
  5
2F8
330
18
100
AcDbEntity
  8
default
100
AcDbLine
 10
980.0
 20
881.0
 30
0.0
 11
1019.6559
 21
975.6521
 31
0.0
  0
SOLID
  5
2F9
330
18
100
AcDbEntity
  8
default
100
AcDbTrace
 10
980.0
 20
881.0
 30
0.0
 11
985.4718
 21
904.1792
 31
0.0
 12
992.6811
 22
901.1487
 32
0.0
 13
992.6811
 23
901.1487
 33
0.0
  0
LINE
  5
2FA
330
18
100
AcDbEntity
  8
default
100
AcDbLine
 10
1019.6559
 20
975.6521
 30
0.0
 11
1083.3188
 21
975.6521
 31
0.0
  0
LINE
  5
2FB
330
18
100
AcDbEntity
  8
default
100
AcDbLine
 10
2974.0082
 20
135.8845
 30
0.0
 11
3223.8919
 21
76.7274
 31
0.0
  0
SOLID
  5
2FC
330
18
100
AcDbEntity
  8
default
100
AcDbTrace
 10
2974.0082
 20
135.8845
 30
0.0
 11
2997.7653
 21
134.2892
 31
0.0
 12
2995.9646
 22
126.6577
 32
0.0
 13
2995.9646
 23
126.6577
 33
0.0
  0
LINE
  5
2FD
330
18
100
AcDbEntity
  8
default
100
AcDbLine
 10
3223.8919
 20
76.7274
 30
0.0
 11
3240.8536
 21
76.7274
 31
0.0
  0
SOLID
  5
2FE
330
18
100
AcDbEntity
  8
default
100
AcDbTrace
 10
2670.0
 20
-26.511
 30
0.0
 11
2693.4885
 21
-22.5897
 31
0.0
 12
2693.4885
 22
-30.4322
 32
0.0
 13
2693.4885
 23
-30.4322
 33
0.0
  0
SOLID
  5
2FF
330
18
100
AcDbEntity
  8
default
100
AcDbTrace
 10
3170.0
 20
-26.511
 30
0.0
 11
3146.5115
 21
-30.4322
 31
0.0
 12
3146.5115
 22
-22.5897
 32
0.0
 13
3146.5115
 23
-22.5897
 33
0.0
  0
LINE
  5
300
330
18
100
AcDbEntity
  8
default
100
AcDbLine
 10
2670.0
 20
-26.511
 30
0.0
 11
3318.0724
 21
-26.511
 31
0.0
  0
TEXT
  5
301
330
18
100
AcDbEntity
  8
default
100
AcDbText
 10
3326.0099
 20
-34.6979
 30
0.0
 40
16.0421
  1
500mm
  7
Arial
100
AcDbText
  0
LINE
  5
302
330
18
100
AcDbEntity
  8
default
100
AcDbLine
 10
2670.0
 20
-42.386
 30
0.0
 11
2670.0
 21
73.0625
 31
0.0
  0
LINE
  5
303
330
18
100
AcDbEntity
  8
default
100
AcDbLine
 10
3170.0
 20
-42.386
 30
0.0
 11
3170.0
 21
73.0625
 31
0.0
  0
TEXT
  5
304
330
18
100
AcDbEntity
  8
default
100
AcDbText
 10
3418.2734
 20
-41.4719
 30
0.0
 40
16.0421
  1
Shorter side of the leg-assembly.
  7
Arial
100
AcDbText
  0
SOLID
  5
305
330
18
100
AcDbEntity
  8
default
100
AcDbTrace
 10
2505.5
 20
1011.0
 30
0.0
 11
2528.9885
 21
1014.9213
 31
0.0
 12
2528.9885
 22
1007.0787
 32
0.0
 13
2528.9885
 23
1007.0787
 33
0.0
  0
SOLID
  5
306
330
18
100
AcDbEntity
  8
default
100
AcDbTrace
 10
3334.5
 20
1011.0
 30
0.0
 11
3311.0115
 21
1007.0787
 31
0.0
 12
3311.0115
 22
1014.9213
 32
0.0
 13
3311.0115
 23
1014.9213
 33
0.0
  0
LINE
  5
307
330
18
100
AcDbEntity
  8
default
100
AcDbLine
 10
2505.5
 20
1011.0
 30
0.0
 11
3490.9837
 21
1011.0
 31
0.0
  0
TEXT
  5
308
330
18
100
AcDbEntity
  8
default
100
AcDbText
 10
3498.9212
 20
1002.8131
 30
0.0
 40
16.0421
  1
829mm
  7
Arial
100
AcDbText
  0
LINE
  5
309
330
18
100
AcDbEntity
  8
default
100
AcDbLine
 10
2505.5
 20
888.9375
 30
0.0
 11
2505.5
 21
1026.875
 31
0.0
  0
LINE
  5
30A
330
18
100
AcDbEntity
  8
default
100
AcDbLine
 10
3334.5
 20
888.9375
 30
0.0
 11
3334.5
 21
1026.875
 31
0.0
  0
POINT
  5
30B
330
18
100
AcDbEntity
  8
default
 62
     1
100
AcDbPoint
 10
2436.4135
 20
-149.1919
 30
0.0
  0
TEXT
  5
30C
330
18
100
AcDbEntity
  8
default
100
AcDbText
 10
2430.0
 20
-150.0
 30
0.0
 40
26.7368
  1
Shorter side of the leg-assembly with top-plate and stainless armrests view
  7
Arial
100
AcDbText
  0
POINT
  5
30D
330
18
100
AcDbEntity
  8
default
 62
     1
100
AcDbPoint
 10
0.0
 20
1201.0
 30
0.0
  0
POINT
  5
30E
330
18
100
AcDbEntity
  8
default
 62
     1
100
AcDbPoint
 10
0.0
 20
1201.0
 30
0.0
  0
POINT
  5
30F
330
18
100
AcDbEntity
  8
default
 62
     1
100
AcDbPoint
 10
0.0
 20
1384.5
 30
0.0
  0
POINT
  5
310
330
18
100
AcDbEntity
  8
default
 62
     1
100
AcDbPoint
 10
980.0
 20
2044.5
 30
0.0
  0
POINT
  5
311
330
18
100
AcDbEntity
  8
default
 62
     1
100
AcDbPoint
 10
160.0
 20
1384.5
 30
0.0
  0
POINT
  5
312
330
18
100
AcDbEntity
  8
default
 62
     1
100
AcDbPoint
 10
160.0
 20
2044.5
 30
0.0
  0
LINE
  5
313
330
18
100
AcDbEntity
  8
default
100
AcDbLine
 10
0.0
 20
2044.5
 30
0.0
 11
980.0
 21
2044.5
 31
0.0
  0
LINE
  5
314
330
18
100
AcDbEntity
  8
default
100
AcDbLine
 10
0.0
 20
1384.5
 30
0.0
 11
0.0
 21
2044.5
 31
0.0
  0
LINE
  5
315
330
18
100
AcDbEntity
  8
default
100
AcDbLine
 10
980.0
 20
1384.5
 30
0.0
 11
980.0
 21
2044.5
 31
0.0
  0
LINE
  5
316
330
18
100
AcDbEntity
  8
default
100
AcDbLine
 10
0.0
 20
1384.5
 30
0.0
 11
980.0
 21
1384.5
 31
0.0
  0
POINT
  5
317
330
18
100
AcDbEntity
  8
default
 62
     1
100
AcDbPoint
 10
148.0
 20
2044.5
 30
0.0
  0
POINT
  5
318
330
18
100
AcDbEntity
  8
default
 62
     1
100
AcDbPoint
 10
172.0
 20
2044.5
 30
0.0
  0
SOLID
  5
319
330
18
100
AcDbEntity
  8
default
100
AcDbTrace
 10
1058.456
 20
2044.5
 30
0.0
 11
1062.3643
 21
2021.0115
 31
0.0
 12
1054.5477
 22
2021.0115
 32
0.0
 13
1054.5477
 23
2021.0115
 33
0.0
  0
SOLID
  5
31A
330
18
100
AcDbEntity
  8
default
100
AcDbTrace
 10
1058.456
 20
1384.5
 30
0.0
 11
1054.5477
 21
1407.9885
 31
0.0
 12
1062.3643
 22
1407.9885
 32
0.0
 13
1062.3643
 23
1407.9885
 33
0.0
  0
LINE
  5
31B
330
18
100
AcDbEntity
  8
default
100
AcDbLine
 10
1058.456
 20
1743.206
 30
0.0
 11
1058.456
 21
2044.5
 31
0.0
  0
LINE
  5
31C
330
18
100
AcDbEntity
  8
default
100
AcDbLine
 10
1058.456
 20
1384.5
 30
0.0
 11
1058.456
 21
1706.1643
 31
0.0
  0
TEXT
  5
31D
330
18
100
AcDbEntity
  8
default
100
AcDbText
 10
1021.9989
 20
1716.4982
 30
0.0
 40
16.0421
  1
660mm
  7
Arial
100
AcDbText
  0
LINE
  5
31E
330
18
100
AcDbEntity
  8
default
100
AcDbLine
 10
987.9375
 20
2044.5
 30
0.0
 11
1074.331
 21
2044.5
 31
0.0
  0
LINE
  5
31F
330
18
100
AcDbEntity
  8
default
100
AcDbLine
 10
987.9375
 20
1384.5
 30
0.0
 11
1074.331
 21
1384.5
 31
0.0
  0
POINT
  5
320
330
18
100
AcDbEntity
  8
default
 62
     1
100
AcDbPoint
 10
0.0
 20
1714.5
 30
0.0
  0
POINT
  5
321
330
18
100
AcDbEntity
  8
default
 62
     1
100
AcDbPoint
 10
0.0
 20
2129.0
 30
0.0
  0
LINE
  5
322
330
18
100
AcDbEntity
  8
default
100
AcDbLine
 10
0.0
 20
2084.0
 30
0.0
 11
0.0
 21
2129.0
 31
0.0
  0
LINE
  5
323
330
18
100
AcDbEntity
  8
default
100
AcDbLine
 10
980.0
 20
2084.0
 30
0.0
 11
980.0
 21
2129.0
 31
0.0
  0
LINE
  5
324
330
18
100
AcDbEntity
  8
default
100
AcDbLine
 10
0.0
 20
2129.0
 30
0.0
 11
980.0
 21
2129.0
 31
0.0
  0
LINE
  5
325
330
18
100
AcDbEntity
  8
default
100
AcDbLine
 10
0.0
 20
2084.0
 30
0.0
 11
980.0
 21
2084.0
 31
0.0
  0
LINE
  5
326
330
18
100
AcDbEntity
  8
default
100
AcDbLine
 10
148.0
 20
2044.5
 30
0.0
 11
148.0
 21
2084.0
 31
0.0
  0
LINE
  5
327
330
18
100
AcDbEntity
  8
default
100
AcDbLine
 10
172.0
 20
2044.5
 30
0.0
 11
172.0
 21
2084.0
 31
0.0
  0
POINT
  5
328
330
18
100
AcDbEntity
  8
default
 62
     1
100
AcDbPoint
 10
490.0
 20
2044.5
 30
0.0
  0
LINE
  5
329
330
18
100
AcDbEntity
  8
default
100
AcDbLine
 10
832.0
 20
2044.5
 30
0.0
 11
832.0
 21
2084.0
 31
0.0
  0
LINE
  5
32A
330
18
100
AcDbEntity
  8
default
100
AcDbLine
 10
808.0
 20
2044.5
 30
0.0
 11
808.0
 21
2084.0
 31
0.0
  0
LINE
  5
32B
330
18
100
AcDbEntity
  8
default
100
AcDbLine
 10
0.0
 20
1300.0
 30
0.0
 11
0.0
 21
1345.0
 31
0.0
  0
LINE
  5
32C
330
18
100
AcDbEntity
  8
default
100
AcDbLine
 10
980.0
 20
1300.0
 30
0.0
 11
980.0
 21
1345.0
 31
0.0
  0
LINE
  5
32D
330
18
100
AcDbEntity
  8
default
100
AcDbLine
 10
0.0
 20
1345.0
 30
0.0
 11
980.0
 21
1345.0
 31
0.0
  0
LINE
  5
32E
330
18
100
AcDbEntity
  8
default
100
AcDbLine
 10
0.0
 20
1300.0
 30
0.0
 11
980.0
 21
1300.0
 31
0.0
  0
LINE
  5
32F
330
18
100
AcDbEntity
  8
default
100
AcDbLine
 10
148.0
 20
1345.0
 30
0.0
 11
148.0
 21
1384.5
 31
0.0
  0
LINE
  5
330
330
18
100
AcDbEntity
  8
default
100
AcDbLine
 10
172.0
 20
1345.0
 30
0.0
 11
172.0
 21
1384.5
 31
0.0
  0
LINE
  5
331
330
18
100
AcDbEntity
  8
default
100
AcDbLine
 10
832.0
 20
1345.0
 30
0.0
 11
832.0
 21
1384.5
 31
0.0
  0
LINE
  5
332
330
18
100
AcDbEntity
  8
default
100
AcDbLine
 10
808.0
 20
1345.0
 30
0.0
 11
808.0
 21
1384.5
 31
0.0
  0
SOLID
  5
333
330
18
100
AcDbEntity
  8
default
100
AcDbTrace
 10
1494.8956
 20
2129.0
 30
0.0
 11
1498.8039
 21
2105.5115
 31
0.0
 12
1490.9874
 22
2105.5115
 32
0.0
 13
1490.9874
 23
2105.5115
 33
0.0
  0
SOLID
  5
334
330
18
100
AcDbEntity
  8
default
100
AcDbTrace
 10
1494.8956
 20
1300.0
 30
0.0
 11
1490.9874
 21
1323.4885
 31
0.0
 12
1498.8039
 22
1323.4885
 32
0.0
 13
1498.8039
 23
1323.4885
 33
0.0
  0
LINE
  5
335
330
18
100
AcDbEntity
  8
default
100
AcDbLine
 10
1494.8956
 20
1762.0208
 30
0.0
 11
1494.8956
 21
2129.0
 31
0.0
  0
LINE
  5
336
330
18
100
AcDbEntity
  8
default
100
AcDbLine
 10
1494.8956
 20
1300.0
 30
0.0
 11
1494.8956
 21
1724.9792
 31
0.0
  0
TEXT
  5
337
330
18
100
AcDbEntity
  8
default
100
AcDbText
 10
1458.4693
 20
1735.3131
 30
0.0
 40
16.0421
  1
829mm
  7
Arial
100
AcDbText
  0
LINE
  5
338
330
18
100
AcDbEntity
  8
default
100
AcDbLine
 10
987.9375
 20
2129.0
 30
0.0
 11
1510.7706
 21
2129.0
 31
0.0
  0
LINE
  5
339
330
18
100
AcDbEntity
  8
default
100
AcDbLine
 10
987.9375
 20
1300.0
 30
0.0
 11
1510.7706
 21
1300.0
 31
0.0
  0
SOLID
  5
33A
330
18
100
AcDbEntity
  8
default
100
AcDbTrace
 10
1132.3071
 20
2129.0
 30
0.0
 11
1128.3989
 21
2152.4885
 31
0.0
 12
1136.2154
 22
2152.4885
 32
0.0
 13
1136.2154
 23
2152.4885
 33
0.0
  0
SOLID
  5
33B
330
18
100
AcDbEntity
  8
default
100
AcDbTrace
 10
1132.3071
 20
2084.0
 30
0.0
 11
1136.2154
 21
2060.5115
 31
0.0
 12
1128.3989
 22
2060.5115
 32
0.0
 13
1128.3989
 23
2060.5115
 33
0.0
  0
LINE
  5
33C
330
18
100
AcDbEntity
  8
default
100
AcDbLine
 10
1132.3071
 20
2129.0
 30
0.0
 11
1132.3071
 21
2172.6593
 31
0.0
  0
LINE
  5
33D
330
18
100
AcDbEntity
  8
default
100
AcDbLine
 10
1132.3071
 20
2036.375
 30
0.0
 11
1132.3071
 21
2084.0
 31
0.0
  0
LINE
  5
33E
330
18
100
AcDbEntity
  8
default
100
AcDbLine
 10
1132.3071
 20
2172.6593
 30
0.0
 11
1156.1196
 21
2172.6593
 31
0.0
  0
LINE
  5
33F
330
18
100
AcDbEntity
  8
default
100
AcDbLine
 10
987.9375
 20
2129.0
 30
0.0
 11
1148.1821
 21
2129.0
 31
0.0
  0
LINE
  5
340
330
18
100
AcDbEntity
  8
default
100
AcDbLine
 10
987.9375
 20
2084.0
 30
0.0
 11
1148.1821
 21
2084.0
 31
0.0
  0
SOLID
  5
341
330
18
100
AcDbEntity
  8
default
100
AcDbTrace
 10
0.0
 20
2168.1114
 30
0.0
 11
23.4885
 21
2172.0327
 31
0.0
 12
23.4885
 22
2164.1902
 32
0.0
 13
23.4885
 23
2164.1902
 33
0.0
  0
SOLID
  5
342
330
18
100
AcDbEntity
  8
default
100
AcDbTrace
 10
980.0
 20
2168.1114
 30
0.0
 11
956.5115
 21
2164.1902
 31
0.0
 12
956.5115
 22
2172.0327
 32
0.0
 13
956.5115
 23
2172.0327
 33
0.0
  0
LINE
  5
343
330
18
100
AcDbEntity
  8
default
100
AcDbLine
 10
0.0
 20
2168.1114
 30
0.0
 11
413.3439
 21
2168.1114
 31
0.0
  0
LINE
  5
344
330
18
100
AcDbEntity
  8
default
100
AcDbLine
 10
502.047
 20
2168.1114
 30
0.0
 11
980.0
 21
2168.1114
 31
0.0
  0
TEXT
  5
345
330
18
100
AcDbEntity
  8
default
100
AcDbText
 10
421.2814
 20
2159.9245
 30
0.0
 40
16.0421
  1
980mm
  7
Arial
100
AcDbText
  0
LINE
  5
346
330
18
100
AcDbEntity
  8
default
100
AcDbLine
 10
0.0
 20
2136.9375
 30
0.0
 11
0.0
 21
2183.9864
 31
0.0
  0
LINE
  5
347
330
18
100
AcDbEntity
  8
default
100
AcDbLine
 10
980.0
 20
2136.9375
 30
0.0
 11
980.0
 21
2183.9864
 31
0.0
  0
CIRCLE
  5
348
330
18
100
AcDbEntity
  8
default
100
AcDbCircle
 10
160.0
 20
311.0
 30
0.0
 40
5.0
  0
CIRCLE
  5
349
330
18
100
AcDbEntity
  8
default
100
AcDbCircle
 10
160.0
 20
361.0
 30
0.0
 40
5.0
  0
CIRCLE
  5
34A
330
18
100
AcDbEntity
  8
default
100
AcDbCircle
 10
160.0
 20
411.0
 30
0.0
 40
5.0
  0
CIRCLE
  5
34B
330
18
100
AcDbEntity
  8
default
100
AcDbCircle
 10
160.0
 20
461.0
 30
0.0
 40
5.0
  0
CIRCLE
  5
34C
330
18
100
AcDbEntity
  8
default
100
AcDbCircle
 10
160.0
 20
511.0
 30
0.0
 40
5.0
  0
CIRCLE
  5
34D
330
18
100
AcDbEntity
  8
default
100
AcDbCircle
 10
160.0
 20
561.0
 30
0.0
 40
5.0
  0
CIRCLE
  5
34E
330
18
100
AcDbEntity
  8
default
100
AcDbCircle
 10
160.0
 20
611.0
 30
0.0
 40
5.0
  0
CIRCLE
  5
34F
330
18
100
AcDbEntity
  8
default
100
AcDbCircle
 10
160.0
 20
661.0
 30
0.0
 40
5.0
  0
CIRCLE
  5
350
330
18
100
AcDbEntity
  8
default
100
AcDbCircle
 10
160.0
 20
711.0
 30
0.0
 40
5.0
  0
POINT
  5
351
330
18
100
AcDbEntity
  8
default
 62
     1
100
AcDbPoint
 10
155.2303
 20
712.5
 30
0.0
  0
POINT
  5
352
330
18
100
AcDbEntity
  8
default
 62
     1
100
AcDbPoint
 10
164.7697
 20
712.5
 30
0.0
  0
POINT
  5
353
330
18
100
AcDbEntity
  8
default
 62
     1
100
AcDbPoint
 10
164.899
 20
710.0
 30
0.0
  0
POINT
  5
354
330
18
100
AcDbEntity
  8
default
 62
     1
100
AcDbPoint
 10
155.101
 20
710.0
 30
0.0
  0
LINE
  5
355
330
18
100
AcDbEntity
  8
default
100
AcDbLine
 10
155.2303
 20
712.5
 30
0.0
 11
164.7697
 21
712.5
 31
0.0
  0
LINE
  5
356
330
18
100
AcDbEntity
  8
default
100
AcDbLine
 10
155.101
 20
710.0
 30
0.0
 11
164.899
 21
710.0
 31
0.0
  0
POINT
  5
357
330
18
100
AcDbEntity
  8
default
 62
     1
100
AcDbPoint
 10
157.0
 20
665.0
 30
0.0
  0
POINT
  5
358
330
18
100
AcDbEntity
  8
default
 62
     1
100
AcDbPoint
 10
163.0
 20
665.0
 30
0.0
  0
POINT
  5
359
330
18
100
AcDbEntity
  8
default
 62
     1
100
AcDbPoint
 10
165.0
 20
661.0
 30
0.0
  0
POINT
  5
35A
330
18
100
AcDbEntity
  8
default
 62
     1
100
AcDbPoint
 10
155.0
 20
661.0
 30
0.0
  0
LINE
  5
35B
330
18
100
AcDbEntity
  8
default
100
AcDbLine
 10
157.0
 20
665.0
 30
0.0
 11
163.0
 21
665.0
 31
0.0
  0
LINE
  5
35C
330
18
100
AcDbEntity
  8
default
100
AcDbLine
 10
155.0
 20
661.0
 30
0.0
 11
165.0
 21
661.0
 31
0.0
  0
POINT
  5
35D
330
18
100
AcDbEntity
  8
default
 62
     1
100
AcDbPoint
 10
820.0
 20
561.0
 30
0.0
  0
POINT
  5
35E
330
18
100
AcDbEntity
  8
default
 62
     1
100
AcDbPoint
 10
820.0
 20
511.0
 30
0.0
  0
POINT
  5
35F
330
18
100
AcDbEntity
  8
default
 62
     1
100
AcDbPoint
 10
820.0
 20
411.0
 30
0.0
  0
POINT
  5
360
330
18
100
AcDbEntity
  8
default
 62
     1
100
AcDbPoint
 10
820.0
 20
561.0
 30
0.0
  0
POINT
  5
361
330
18
100
AcDbEntity
  8
default
 62
     1
100
AcDbPoint
 10
820.0
 20
511.0
 30
0.0
  0
POINT
  5
362
330
18
100
AcDbEntity
  8
default
 62
     1
100
AcDbPoint
 10
820.0
 20
411.0
 30
0.0
  0
CIRCLE
  5
363
330
18
100
AcDbEntity
  8
default
100
AcDbCircle
 10
820.0
 20
311.0
 30
0.0
 40
5.0
  0
CIRCLE
  5
364
330
18
100
AcDbEntity
  8
default
100
AcDbCircle
 10
820.0
 20
361.0
 30
0.0
 40
5.0
  0
CIRCLE
  5
365
330
18
100
AcDbEntity
  8
default
100
AcDbCircle
 10
820.0
 20
411.0
 30
0.0
 40
5.0
  0
CIRCLE
  5
366
330
18
100
AcDbEntity
  8
default
100
AcDbCircle
 10
820.0
 20
461.0
 30
0.0
 40
5.0
  0
CIRCLE
  5
367
330
18
100
AcDbEntity
  8
default
100
AcDbCircle
 10
820.0
 20
511.0
 30
0.0
 40
5.0
  0
CIRCLE
  5
368
330
18
100
AcDbEntity
  8
default
100
AcDbCircle
 10
820.0
 20
561.0
 30
0.0
 40
5.0
  0
CIRCLE
  5
369
330
18
100
AcDbEntity
  8
default
100
AcDbCircle
 10
820.0
 20
611.0
 30
0.0
 40
5.0
  0
CIRCLE
  5
36A
330
18
100
AcDbEntity
  8
default
100
AcDbCircle
 10
820.0
 20
661.0
 30
0.0
 40
5.0
  0
CIRCLE
  5
36B
330
18
100
AcDbEntity
  8
default
100
AcDbCircle
 10
820.0
 20
711.0
 30
0.0
 40
5.0
  0
POINT
  5
36C
330
18
100
AcDbEntity
  8
default
 62
     1
100
AcDbPoint
 10
824.7697
 20
712.5
 30
0.0
  0
POINT
  5
36D
330
18
100
AcDbEntity
  8
default
 62
     1
100
AcDbPoint
 10
815.2303
 20
712.5
 30
0.0
  0
POINT
  5
36E
330
18
100
AcDbEntity
  8
default
 62
     1
100
AcDbPoint
 10
815.101
 20
710.0
 30
0.0
  0
POINT
  5
36F
330
18
100
AcDbEntity
  8
default
 62
     1
100
AcDbPoint
 10
824.899
 20
710.0
 30
0.0
  0
LINE
  5
370
330
18
100
AcDbEntity
  8
default
100
AcDbLine
 10
815.2303
 20
712.5
 30
0.0
 11
824.7697
 21
712.5
 31
0.0
  0
LINE
  5
371
330
18
100
AcDbEntity
  8
default
100
AcDbLine
 10
815.101
 20
710.0
 30
0.0
 11
824.899
 21
710.0
 31
0.0
  0
POINT
  5
372
330
18
100
AcDbEntity
  8
default
 62
     1
100
AcDbPoint
 10
823.0
 20
665.0
 30
0.0
  0
POINT
  5
373
330
18
100
AcDbEntity
  8
default
 62
     1
100
AcDbPoint
 10
817.0
 20
665.0
 30
0.0
  0
POINT
  5
374
330
18
100
AcDbEntity
  8
default
 62
     1
100
AcDbPoint
 10
815.0
 20
661.0
 30
0.0
  0
POINT
  5
375
330
18
100
AcDbEntity
  8
default
 62
     1
100
AcDbPoint
 10
825.0
 20
661.0
 30
0.0
  0
LINE
  5
376
330
18
100
AcDbEntity
  8
default
100
AcDbLine
 10
817.0
 20
665.0
 30
0.0
 11
823.0
 21
665.0
 31
0.0
  0
LINE
  5
377
330
18
100
AcDbEntity
  8
default
100
AcDbLine
 10
815.0
 20
661.0
 30
0.0
 11
825.0
 21
661.0
 31
0.0
  0
SOLID
  5
378
330
18
100
AcDbEntity
  8
default
100
AcDbTrace
 10
3302.0
 20
589.0036
 30
0.0
 11
3278.5115
 21
585.0823
 31
0.0
 12
3278.5115
 22
592.9248
 32
0.0
 13
3278.5115
 23
592.9248
 33
0.0
  0
SOLID
  5
379
330
18
100
AcDbEntity
  8
default
100
AcDbTrace
 10
3322.0
 20
589.0036
 30
0.0
 11
3345.4885
 21
592.9248
 31
0.0
 12
3345.4885
 22
585.0823
 32
0.0
 13
3345.4885
 23
585.0823
 33
0.0
  0
LINE
  5
37A
330
18
100
AcDbEntity
  8
default
100
AcDbLine
 10
3322.0
 20
589.0036
 30
0.0
 11
3378.6828
 21
589.0036
 31
0.0
  0
LINE
  5
37B
330
18
100
AcDbEntity
  8
default
100
AcDbLine
 10
3254.375
 20
589.0036
 30
0.0
 11
3302.0
 21
589.0036
 31
0.0
  0
TEXT
  5
37C
330
18
100
AcDbEntity
  8
default
100
AcDbText
 10
3386.6203
 20
580.8166
 30
0.0
 40
16.0421
  1
20mm
  7
Arial
100
AcDbText
  0
SOLID
  5
37D
330
18
100
AcDbEntity
  8
default
100
AcDbTrace
 10
3170.0
 20
625.4079
 30
0.0
 11
3193.4885
 21
629.3291
 31
0.0
 12
3193.4885
 22
621.4866
 32
0.0
 13
3193.4885
 23
621.4866
 33
0.0
  0
SOLID
  5
37E
330
18
100
AcDbEntity
  8
default
100
AcDbTrace
 10
3302.0
 20
625.4079
 30
0.0
 11
3278.5115
 21
621.4866
 31
0.0
 12
3278.5115
 22
629.3291
 32
0.0
 13
3278.5115
 23
629.3291
 33
0.0
  0
LINE
  5
37F
330
18
100
AcDbEntity
  8
default
100
AcDbLine
 10
3170.0
 20
625.4079
 30
0.0
 11
3379.5722
 21
625.4079
 31
0.0
  0
TEXT
  5
380
330
18
100
AcDbEntity
  8
default
100
AcDbText
 10
3387.5097
 20
617.2209
 30
0.0
 40
16.0421
  1
132mm
  7
Arial
100
AcDbText
  0
LINE
  5
381
330
18
100
AcDbEntity
  8
default
100
AcDbLine
 10
3302.0
 20
288.9375
 30
0.0
 11
3302.0
 21
641.2829
 31
0.0
  0
TEXT
  5
382
330
18
100
AcDbEntity
  8
default
100
AcDbText
 10
100.0
 20
-200.0
 30
0.0
 40
26.7368
  1
Longer side of the leg-assembly with top-plate and stainless-armrest from the front view
  7
Arial
100
AcDbText
  0
TEXT
  5
383
330
18
100
AcDbEntity
  8
default
100
AcDbText
 10
470.4624
 20
629.8328
 30
0.0
 40
16.0421
  1
~ 136.5mm
  7
Arial
100
AcDbText
  0
TEXT
  5
384
330
18
100
AcDbEntity
  8
default
100
AcDbText
 10
0.0
 20
1200.0
 30
0.0
 40
26.7368
  1
Top plate upper view with 2 stainless steel armrests
  7
Arial
100
AcDbText
  0
TEXT
  5
385
330
18
100
AcDbEntity
  8
default
100
AcDbText
 10
1560.0
 20
1735.3131
 30
0.0
 40
16.0421
  1
Distance between the outer edges of the stainless steel armrests.
  7
Arial
100
AcDbText
  0
TEXT
  5
386
330
18
100
AcDbEntity
  8
default
100
AcDbText
 10
1118.456
 20
1716.4982
 30
0.0
 40
16.0421
  1
The shorter side of the top plate
  7
Arial
100
AcDbText
  0
TEXT
  5
387
330
18
100
AcDbEntity
  8
default
100
AcDbText
 10
1164.0571
 20
2164.4723
 30
0.0
 40
16.0421
  1
45mm       The shorter side of the top of the stainless steel armrest
  7
Arial
100
AcDbText
  0
TEXT
  5
388
330
18
100
AcDbEntity
  8
default
100
AcDbText
 10
423.7425
 20
2218.0435
 30
0.0
 40
16.0421
  1
Width of the top plate and length of the armrest are the same.
  7
Arial
100
AcDbText
  0
TEXT
  5
389
330
18
100
AcDbEntity
  8
default
100
AcDbText
 10
659.3131
 20
-404.9992
 30
0.0
 40
57.7516
  1
980 x 660 mm IVF table: Upper view, Longer side view, Shorter side view
  7
Arial
100
AcDbText
  0
TEXT
  5
38A
330
18
100
AcDbEntity
  8
default
100
AcDbText
 10
466.3871
 20
986.0522
 30
0.0
 40
16.0421
  1
Top plate and armrest length are the same.
  7
Arial
100
AcDbText
  0
TEXT
  5
38B
330
18
100
AcDbEntity
  8
default
100
AcDbText
 10
1091.2563
 20
967.4652
 30
0.0
 40
16.0421
  1
Stainless steel armrest (thickness is 20mm)
  7
Arial
100
AcDbText
  0
TEXT
  5
38C
330
18
100
AcDbEntity
  8
default
100
AcDbText
 10
1055.852
 20
924.5204
 30
0.0
 40
16.0421
  1
58.5 mm (The hight of the armrest can be moved higher or lower according to the distance of the holes which is 50mm)
  7
Arial
100
AcDbText
  0
TEXT
  5
38D
330
18
100
AcDbEntity
  8
default
100
AcDbText
 10
1460.0
 20
399.9656
 30
0.0
 40
16.0421
  1
The height of the top plate upper part from the ground
  7
Arial
100
AcDbText
  0
TEXT
  5
38E
330
18
100
AcDbEntity
  8
default
100
AcDbText
 10
1460.0
 20
369.9656
 30
0.0
 40
16.0421
  1
according to adjustable leg-chocks
  7
Arial
100
AcDbText
  0
TEXT
  5
38F
330
18
100
AcDbEntity
  8
default
100
AcDbText
 10
1102.2572
 20
678.2292
 30
0.0
 40
16.0421
  1
Top plate (thickness is 110 mm)
  7
Arial
100
AcDbText
  0
TEXT
  5
390
330
18
100
AcDbEntity
  8
default
100
AcDbText
 10
981.1259
 20
320.6784
 30
0.0
 40
16.0421
  1
Beams on the rear legs
  7
Arial
100
AcDbText
  0
TEXT
  5
391
330
18
100
AcDbEntity
  8
default
100
AcDbText
 10
3418.2734
 20
-71.4719
 30
0.0
 40
16.0421
  1
The length of the shorter side is 515 mm including the edges of the working cylinders
  7
Arial
100
AcDbText
  0
TEXT
  5
392
330
18
100
AcDbEntity
  8
default
100
AcDbText
 10
3379.2559
 20
297.3893
 30
0.0
 40
16.0421
  1
150 mm long armrest screws (without threaded part)
  7
Arial
100
AcDbText
  0
TEXT
  5
393
330
18
100
AcDbEntity
  8
default
100
AcDbText
 10
3381.75
 20
346.6377
 30
0.0
 40
16.0421
  1
24 mm (diameter of the armrest-screws)
  7
Arial
100
AcDbText
  0
TEXT
  5
394
330
18
100
AcDbEntity
  8
default
100
AcDbText
 10
3450.0
 20
471.8131
 30
0.0
 40
16.0421
  1
Distance of the mid-points of the armrest screws
  7
Arial
100
AcDbText
  0
TEXT
  5
395
330
18
100
AcDbEntity
  8
default
100
AcDbText
 10
2886.3204
 20
957.9036
 30
0.0
 40
16.0421
  1
Top plate shorter side
  7
Arial
100
AcDbText
  0
TEXT
  5
396
330
18
100
AcDbEntity
  8
default
100
AcDbText
 10
3597.4404
 20
1002.8131
 30
0.0
 40
16.0421
  1
Distance between the outer edges of the two stainless steel armrests
  7
Arial
100
AcDbText
  0
TEXT
  5
397
330
18
100
AcDbEntity
  8
default
100
AcDbText
 10
3257.5094
 20
68.5405
 30
0.0
 40
16.0421
  1
Beams between rear and front legs
  7
Arial
100
AcDbText
  0
ENDSEC
  0
SECTION
  2
OBJECTS
  0
DICTIONARY
  5
C
330
0
100
AcDbDictionary
281
     1
  3
ACAD_GROUP
350
D
  3
ACAD_LAYOUT
350
398
  3
ACAD_MLEADERSTYLE
350
3C1
  3
ACAD_MLINESTYLE
350
1B
  3
ACAD_SCALELIST
350
39B
  3
ACAD_TABLESTYLE
350
3C0
  3
AcDbVariableDictionary
350
3BD
  0
DICTIONARY
  5
D
102
{ACAD_REACTORS
330
C
102
}
330
C
100
AcDbDictionary
281
     1
  0
DICTIONARY
  5
398
102
{ACAD_REACTORS
330
C
102
}
330
C
100
AcDbDictionary
281
     1
  3
Layout1
350
39A
  3
Model
350
399
  0
DICTIONARY
  5
3C1
102
{ACAD_REACTORS
330
C
102
}
330
C
100
AcDbDictionary
281
     1
  0
DICTIONARY
  5
1B
102
{ACAD_REACTORS
330
C
102
}
330
C
100
AcDbDictionary
281
     1
  3
STANDARD
350
1C
  0
DICTIONARY
  5
39B
102
{ACAD_REACTORS
330
C
102
}
330
C
100
AcDbDictionary
281
     1
  3
A0
350
39C
  3
A1
350
39D
  3
A2
350
39E
  3
A3
350
39F
  3
A4
350
3A0
  3
A5
350
3A1
  3
A6
350
3A2
  3
A7
350
3A3
  3
A8
350
3A4
  3
A9
350
3A5
  3
B0
350
3A6
  3
B1
350
3A7
  3
B2
350
3A8
  3
B3
350
3A9
  3
B4
350
3AA
  3
B5
350
3AB
  3
B6
350
3AC
  3
B7
350
3AD
  3
B8
350
3AE
  3
B9
350
3AF
  3
C0
350
3B0
  3
C1
350
3B1
  3
C2
350
3B2
  3
C3
350
3B3
  3
C4
350
3B4
  3
C5
350
3B5
  3
C6
350
3B6
  3
C7
350
3B7
  3
C8
350
3B8
  3
C9
350
3B9
  3
D0
350
3BA
  3
D1
350
3BB
  3
D2
350
3BC
  0
DICTIONARY
  5
3C0
102
{ACAD_REACTORS
330
C
102
}
330
C
100
AcDbDictionary
281
     1
  0
DICTIONARY
  5
3BD
102
{ACAD_REACTORS
330
C
102
}
330
C
100
AcDbDictionary
281
     1
  3
CANNOSCALE
350
3BE
  3
LIGHTINGUNITS
350
3BF
  0
LAYOUT
  5
39A
102
{ACAD_REACTORS
330
398
102
}
330
398
100
AcDbPlotSettings
  1

  2
none_device
  4

  6

 40
0.0
 41
0.0
 42
0.0
 43
0.0
 44
0.0
 45
0.0
 46
0.0
 47
0.0
 48
0.0
 49
0.0
140
0.0
141
0.0
142
1.0
143
1.0
 70
   688
 72
     0
 73
     0
 74
     5
  7

 75
    16
 76
     0
 77
     2
 78
   300
147
1.0
148
0.0
149
0.0
100
AcDbLayout
  1
Layout1
 70
     1
 71
     1
 10
0.0
 20
0.0
 11
0.0
 21
0.0
 12
0.0
 22
0.0
 32
0.0
 14
0.0
 24
0.0
 34
0.0
 15
0.0
 25
0.0
 35
0.0
146
0.0
 13
0.0
 23
0.0
 33
0.0
 16
1.0
 26
0.0
 36
0.0
 17
0.0
 27
1.0
 37
0.0
 76
     0
330
15
  0
LAYOUT
  5
399
102
{ACAD_REACTORS
330
398
102
}
330
398
100
AcDbPlotSettings
  1

  2
none_device
  4

  6

 40
0.0
 41
0.0
 42
0.0
 43
0.0
 44
0.0
 45
0.0
 46
0.0
 47
0.0
 48
0.0
 49
0.0
140
0.0
141
0.0
142
1.0
143
1.0
 70
   688
 72
     0
 73
     0
 74
     5
  7

 75
    16
 76
     0
 77
     2
 78
   300
147
1.0
148
0.0
149
0.0
100
AcDbLayout
  1
Model
 70
     1
 71
     0
 10
0.0
 20
0.0
 11
0.0
 21
0.0
 12
0.0
 22
0.0
 32
0.0
 14
0.0
 24
0.0
 34
0.0
 15
0.0
 25
0.0
 35
0.0
146
0.0
 13
0.0
 23
0.0
 33
0.0
 16
1.0
 26
0.0
 36
0.0
 17
0.0
 27
1.0
 37
0.0
 76
     0
330
18
331
1E
  0
MLINESTYLE
  5
1C
102
{ACAD_REACTORS
330
1B
102
}
330
1B
100
AcDbMlineStyle
  2
STANDARD
 70
     0
  3

 62
   256
 51
90.0
 52
90.0
 71
     2
 49
0.5
 62
   256
  6
BYLAYER
 49
-0.5
 62
   256
  6
BYLAYER
  0
SCALE
  5
39C
102
{ACAD_REACTORS
330
39B
102
}
330
39B
100
AcDbScale
 70
     0
300
1:1
140
1.0
141
1.0
290
     1
  0
SCALE
  5
39D
102
{ACAD_REACTORS
330
39B
102
}
330
39B
100
AcDbScale
 70
     0
300
1:2
140
1.0
141
2.0
290
     0
  0
SCALE
  5
39E
102
{ACAD_REACTORS
330
39B
102
}
330
39B
100
AcDbScale
 70
     0
300
1:4
140
1.0
141
4.0
290
     0
  0
SCALE
  5
39F
102
{ACAD_REACTORS
330
39B
102
}
330
39B
100
AcDbScale
 70
     0
300
1:5
140
1.0
141
5.0
290
     0
  0
SCALE
  5
3A0
102
{ACAD_REACTORS
330
39B
102
}
330
39B
100
AcDbScale
 70
     0
300
1:8
140
1.0
141
8.0
290
     0
  0
SCALE
  5
3A1
102
{ACAD_REACTORS
330
39B
102
}
330
39B
100
AcDbScale
 70
     0
300
1:10
140
1.0
141
10.0
290
     0
  0
SCALE
  5
3A2
102
{ACAD_REACTORS
330
39B
102
}
330
39B
100
AcDbScale
 70
     0
300
1:16
140
1.0
141
16.0
290
     0
  0
SCALE
  5
3A3
102
{ACAD_REACTORS
330
39B
102
}
330
39B
100
AcDbScale
 70
     0
300
1:20
140
1.0
141
20.0
290
     0
  0
SCALE
  5
3A4
102
{ACAD_REACTORS
330
39B
102
}
330
39B
100
AcDbScale
 70
     0
300
1:30
140
1.0
141
30.0
290
     0
  0
SCALE
  5
3A5
102
{ACAD_REACTORS
330
39B
102
}
330
39B
100
AcDbScale
 70
     0
300
1:40
140
1.0
141
40.0
290
     0
  0
SCALE
  5
3A6
102
{ACAD_REACTORS
330
39B
102
}
330
39B
100
AcDbScale
 70
     0
300
1:50
140
1.0
141
50.0
290
     0
  0
SCALE
  5
3A7
102
{ACAD_REACTORS
330
39B
102
}
330
39B
100
AcDbScale
 70
     0
300
1:100
140
1.0
141
100.0
290
     0
  0
SCALE
  5
3A8
102
{ACAD_REACTORS
330
39B
102
}
330
39B
100
AcDbScale
 70
     0
300
2:1
140
2.0
141
1.0
290
     0
  0
SCALE
  5
3A9
102
{ACAD_REACTORS
330
39B
102
}
330
39B
100
AcDbScale
 70
     0
300
4:1
140
4.0
141
1.0
290
     0
  0
SCALE
  5
3AA
102
{ACAD_REACTORS
330
39B
102
}
330
39B
100
AcDbScale
 70
     0
300
8:1
140
8.0
141
1.0
290
     0
  0
SCALE
  5
3AB
102
{ACAD_REACTORS
330
39B
102
}
330
39B
100
AcDbScale
 70
     0
300
10:1
140
10.0
141
1.0
290
     0
  0
SCALE
  5
3AC
102
{ACAD_REACTORS
330
39B
102
}
330
39B
100
AcDbScale
 70
     0
300
100:1
140
100.0
141
1.0
290
     0
  0
SCALE
  5
3AD
102
{ACAD_REACTORS
330
39B
102
}
330
39B
100
AcDbScale
 70
     0
300
1/128" = 1'-0"
140
0.0078125
141
12.0
290
     0
  0
SCALE
  5
3AE
102
{ACAD_REACTORS
330
39B
102
}
330
39B
100
AcDbScale
 70
     0
300
1/64" = 1'-0"
140
0.015625
141
12.0
290
     0
  0
SCALE
  5
3AF
102
{ACAD_REACTORS
330
39B
102
}
330
39B
100
AcDbScale
 70
     0
300
1/32" = 1'-0"
140
0.03125
141
12.0
290
     0
  0
SCALE
  5
3B0
102
{ACAD_REACTORS
330
39B
102
}
330
39B
100
AcDbScale
 70
     0
300
1/16" = 1'-0"
140
0.0625
141
12.0
290
     0
  0
SCALE
  5
3B1
102
{ACAD_REACTORS
330
39B
102
}
330
39B
100
AcDbScale
 70
     0
300
3/32" = 1'-0"
140
0.09375
141
12.0
290
     0
  0
SCALE
  5
3B2
102
{ACAD_REACTORS
330
39B
102
}
330
39B
100
AcDbScale
 70
     0
300
1/8" = 1'-0"
140
0.125
141
12.0
290
     0
  0
SCALE
  5
3B3
102
{ACAD_REACTORS
330
39B
102
}
330
39B
100
AcDbScale
 70
     0
300
3/16" = 1'-0"
140
0.1875
141
12.0
290
     0
  0
SCALE
  5
3B4
102
{ACAD_REACTORS
330
39B
102
}
330
39B
100
AcDbScale
 70
     0
300
1/4" = 1'-0"
140
0.25
141
12.0
290
     0
  0
SCALE
  5
3B5
102
{ACAD_REACTORS
330
39B
102
}
330
39B
100
AcDbScale
 70
     0
300
3/8" = 1'-0"
140
0.375
141
12.0
290
     0
  0
SCALE
  5
3B6
102
{ACAD_REACTORS
330
39B
102
}
330
39B
100
AcDbScale
 70
     0
300
1/2" = 1'-0"
140
0.5
141
12.0
290
     0
  0
SCALE
  5
3B7
102
{ACAD_REACTORS
330
39B
102
}
330
39B
100
AcDbScale
 70
     0
300
3/4" = 1'-0"
140
0.75
141
12.0
290
     0
  0
SCALE
  5
3B8
102
{ACAD_REACTORS
330
39B
102
}
330
39B
100
AcDbScale
 70
     0
300
1" = 1'-0"
140
1.0
141
12.0
290
     0
  0
SCALE
  5
3B9
102
{ACAD_REACTORS
330
39B
102
}
330
39B
100
AcDbScale
 70
     0
300
1-1/2" = 1'-0"
140
1.5
141
12.0
290
     0
  0
SCALE
  5
3BA
102
{ACAD_REACTORS
330
39B
102
}
330
39B
100
AcDbScale
 70
     0
300
3" = 1'-0"
140
3.0
141
12.0
290
     0
  0
SCALE
  5
3BB
102
{ACAD_REACTORS
330
39B
102
}
330
39B
100
AcDbScale
 70
     0
300
6" = 1'-0"
140
6.0
141
12.0
290
     0
  0
SCALE
  5
3BC
102
{ACAD_REACTORS
330
39B
102
}
330
39B
100
AcDbScale
 70
     0
300
1'-0" = 1'-0"
140
12.0
141
12.0
290
     0
  0
DICTIONARYVAR
  5
3BE
102
{ACAD_REACTORS
330
3BD
102
}
330
3BD
100
DictionaryVariables
280
     0
  1
1:1
  0
DICTIONARYVAR
  5
3BF
102
{ACAD_REACTORS
330
3BD
102
}
330
3BD
100
DictionaryVariables
280
     0
  1
0
  0
ENDSEC
  0
EOF
