  0
SECTION
  2
HEADER
  9
$ACADVER
  1
AC1021
  9
$ACADMAINTVER
 70
    25
  9
$DWGCODEPAGE
  3
ANSI_1252
  9
$INSBASE
 10
0.0
 20
0.0
 30
0.0
  9
$EXTMIN
 10
-0.0026
 20
-408.6001
 30
0.0
  9
$EXTMAX
 10
4570.4166
 20
2399.5241
 30
0.0
  9
$LIMMIN
 10
-0.0026
 20
-408.6001
  9
$LIMMAX
 10
4570.4166
 20
2399.5241
  9
$ORTHOMODE
 70
     0
  9
$REGENMODE
 70
     1
  9
$FILLMODE
 70
     1
  9
$QTEXTMODE
 70
     0
  9
$MIRRTEXT
 70
     1
  9
$LTSCALE
 40
1.0
  9
$ATTMODE
 70
     1
  9
$TEXTSIZE
 40
0.2
  9
$TRACEWID
 40
0.05
  9
$TEXTSTYLE
  7
STANDARD
  9
$CLAYER
  8
default
  9
$CELTYPE
  6
BYLAYER
  9
$CECOLOR
 62
   256
  9
$CELTSCALE
 40
1.0
  9
$DISPSILH
 70
     0
  9
$DIMSCALE
 40
1.0
  9
$DIMASZ
 40
0.18
  9
$DIMEXO
 40
0.0625
  9
$DIMDLI
 40
0.38
  9
$DIMRND
 40
0.0
  9
$DIMDLE
 40
0.0
  9
$DIMEXE
 40
0.18
  9
$DIMTP
 40
0.0
  9
$DIMTM
 40
0.0
  9
$DIMTXT
 40
0.18
  9
$DIMCEN
 40
0.09
  9
$DIMTSZ
 40
0.0
  9
$DIMTOL
 70
     0
  9
$DIMLIM
 70
     0
  9
$DIMTIH
 70
     1
  9
$DIMTOH
 70
     1
  9
$DIMSE1
 70
     0
  9
$DIMSE2
 70
     0
  9
$DIMTAD
 70
     0
  9
$DIMZIN
 70
     0
  9
$DIMBLK
  1

  9
$DIMASO
 70
     1
  9
$DIMSHO
 70
     1
  9
$DIMPOST
  1

  9
$DIMAPOST
  1

  9
$DIMALT
 70
     0
  9
$DIMALTD
 70
     2
  9
$DIMALTF
 40
25.4
  9
$DIMLFAC
 40
1.0
  9
$DIMTOFL
 70
     0
  9
$DIMTVP
 40
0.0
  9
$DIMTIX
 70
     0
  9
$DIMSOXD
 70
     0
  9
$DIMSAH
 70
     0
  9
$DIMBLK1
  1

  9
$DIMBLK2
  1

  9
$DIMSTYLE
  2
STANDARD
  9
$DIMCLRD
 70
     0
  9
$DIMCLRE
 70
     0
  9
$DIMCLRT
 70
     0
  9
$DIMTFAC
 40
1.0
  9
$DIMGAP
 40
0.09
  9
$DIMJUST
 70
     0
  9
$DIMSD1
 70
     0
  9
$DIMSD2
 70
     0
  9
$DIMTOLJ
 70
     1
  9
$DIMTZIN
 70
     0
  9
$DIMALTZ
 70
     0
  9
$DIMALTTZ
 70
     0
  9
$DIMUPT
 70
     0
  9
$DIMDEC
 70
     4
  9
$DIMTDEC
 70
     4
  9
$DIMALTU
 70
     2
  9
$DIMALTTD
 70
     2
  9
$DIMTXSTY
  7
STANDARD
  9
$DIMAUNIT
 70
     0
  9
$DIMADEC
 70
     0
  9
$DIMALTRND
 40
0.0
  9
$DIMAZIN
 70
     0
  9
$DIMDSEP
 70
    46
  9
$DIMATFIT
 70
     3
  9
$DIMFRAC
 70
     0
  9
$DIMLDRBLK
  1

  9
$DIMLUNIT
 70
     2
  9
$DIMLWD
 70
    -2
  9
$DIMLWE
 70
    -2
  9
$DIMTMOVE
 70
     2
  9
$DIMFXL
 40
1.0
  9
$DIMFXLON
 70
     0
  9
$DIMJOGANG
 40
0.7853981633974483
  9
$DIMTFILL
 70
     0
  9
$DIMTFILLCLR
 70
     0
  9
$DIMARCSYM
 70
     0
  9
$DIMLTYPE
  6

  9
$DIMLTEX1
  6

  9
$DIMLTEX2
  6

  9
$LUNITS
 70
     2
  9
$LUPREC
 70
     4
  9
$SKETCHINC
 40
0.1
  9
$FILLETRAD
 40
0.5
  9
$AUNITS
 70
     0
  9
$AUPREC
 70
     0
  9
$MENU
  1
.
  9
$ELEVATION
 40
0.0
  9
$PELEVATION
 40
0.0
  9
$THICKNESS
 40
0.0
  9
$LIMCHECK
 70
     0
  9
$CHAMFERA
 40
0.5
  9
$CHAMFERB
 40
0.5
  9
$CHAMFERC
 40
1.0
  9
$CHAMFERD
 40
0.0
  9
$SKPOLY
 70
     0
  9
$TDCREATE
 40
2458151.548553241
  9
$TDUCREATE
 40
2458151.506886574
  9
$TDUPDATE
 40
2458151.548553241
  9
$TDUUPDATE
 40
2458151.506886574
  9
$TDINDWG
 40
0.0
  9
$TDUSRTIMER
 40
0.0
  9
$USRTIMER
 70
     1
  9
$ANGBASE
 50
0.0
  9
$ANGDIR
 70
     0
  9
$PDMODE
 70
     0
  9
$PDSIZE
 40
0.0
  9
$PLINEWID
 40
0.0
  9
$SPLFRAME
 70
     0
  9
$SPLINETYPE
 70
     6
  9
$SPLINESEGS
 70
     8
  9
$HANDSEED
  5
268
  9
$SURFTAB1
 70
     6
  9
$SURFTAB2
 70
     6
  9
$SURFTYPE
 70
     6
  9
$SURFU
 70
     6
  9
$SURFV
 70
     6
  9
$UCSBASE
  2

  9
$UCSNAME
  2

  9
$UCSORG
 10
0.0
 20
0.0
 30
0.0
  9
$UCSXDIR
 10
1.0
 20
0.0
 30
0.0
  9
$UCSYDIR
 10
0.0
 20
1.0
 30
0.0
  9
$UCSORTHOREF
  2

  9
$UCSORTHOVIEW
 70
     0
  9
$UCSORGTOP
 10
0.0
 20
0.0
 30
0.0
  9
$UCSORGBOTTOM
 10
0.0
 20
0.0
 30
0.0
  9
$UCSORGLEFT
 10
0.0
 20
0.0
 30
0.0
  9
$UCSORGRIGHT
 10
0.0
 20
0.0
 30
0.0
  9
$UCSORGFRONT
 10
0.0
 20
0.0
 30
0.0
  9
$UCSORGBACK
 10
0.0
 20
0.0
 30
0.0
  9
$PUCSBASE
  2

  9
$PUCSNAME
  2

  9
$PUCSORG
 10
0.0
 20
0.0
 30
0.0
  9
$PUCSXDIR
 10
1.0
 20
0.0
 30
0.0
  9
$PUCSYDIR
 10
0.0
 20
1.0
 30
0.0
  9
$PUCSORTHOREF
  2

  9
$PUCSORTHOVIEW
 70
     0
  9
$PUCSORGTOP
 10
0.0
 20
0.0
 30
0.0
  9
$PUCSORGBOTTOM
 10
0.0
 20
0.0
 30
0.0
  9
$PUCSORGLEFT
 10
0.0
 20
0.0
 30
0.0
  9
$PUCSORGRIGHT
 10
0.0
 20
0.0
 30
0.0
  9
$PUCSORGFRONT
 10
0.0
 20
0.0
 30
0.0
  9
$PUCSORGBACK
 10
0.0
 20
0.0
 30
0.0
  9
$USERI1
 70
     0
  9
$USERI2
 70
     0
  9
$USERI3
 70
     0
  9
$USERI4
 70
     0
  9
$USERI5
 70
     0
  9
$USERR1
 40
0.0
  9
$USERR2
 40
0.0
  9
$USERR3
 40
0.0
  9
$USERR4
 40
0.0
  9
$USERR5
 40
0.0
  9
$WORLDVIEW
 70
     1
  9
$SHADEDGE
 70
     3
  9
$SHADEDIF
 70
    70
  9
$TILEMODE
 70
     1
  9
$MAXACTVP
 70
    48
  9
$PINSBASE
 10
0.0
 20
0.0
 30
0.0
  9
$PLIMCHECK
 70
     0
  9
$PEXTMIN
 10
1.000000000000000E+20
 20
1.000000000000000E+20
 30
1.000000000000000E+20
  9
$PEXTMAX
 10
-1.000000000000000E+20
 20
-1.000000000000000E+20
 30
-1.000000000000000E+20
  9
$PLIMMIN
 10
0.0
 20
0.0
  9
$PLIMMAX
 10
12.0
 20
9.0
  9
$UNITMODE
 70
     0
  9
$VISRETAIN
 70
     1
  9
$PLINEGEN
 70
     0
  9
$PSLTSCALE
 70
     1
  9
$TREEDEPTH
 70
  3020
  9
$CMLSTYLE
  2
STANDARD
  9
$CMLJUST
 70
     0
  9
$CMLSCALE
 40
1.0
  9
$PROXYGRAPHICS
 70
     1
  9
$MEASUREMENT
 70
     0
  9
$CELWEIGHT
370
    -1
  9
$ENDCAPS
280
     0
  9
$JOINSTYLE
280
     0
  9
$LWDISPLAY
290
     0
  9
$INSUNITS
 70
     0
  9
$HYPERLINKBASE
  1

  9
$STYLESHEET
  1

  9
$XEDIT
290
     1
  9
$CEPSNTYPE
380
     0
  9
$PSTYLEMODE
290
     1
  9
$FINGERPRINTGUID
  2
{BABF60E4-0066-40CC-865D-F333AAAADE5F}
  9
$VERSIONGUID
  2
{FAEB1C32-E019-11D5-929B-00C0DF256EC4}
  9
$EXTNAMES
290
     1
  9
$PSVPSCALE
 40
0.0
  9
$OLESTARTUP
290
     0
  9
$SORTENTS
280
   127
  9
$INDEXCTL
280
     0
  9
$HIDETEXT
280
     1
  9
$XCLIPFRAME
290
     0
  9
$HALOGAP
280
     0
  9
$OBSCOLOR
 70
   257
  9
$OBSLTYPE
280
     0
  9
$INTERSECTIONDISPLAY
280
     0
  9
$INTERSECTIONCOLOR
 70
   257
  9
$DIMASSOC
280
     2
  9
$PROJECTNAME
  1

  9
$CAMERADISPLAY
290
     0
  9
$LENSLENGTH
 40
50.0
  9
$CAMERAHEIGHT
 40
0.0
  9
$STEPSPERSEC
 40
2.0
  9
$STEPSIZE
 40
6.0
  9
$3DDWFPREC
 40
2.0
  9
$PSOLWIDTH
 40
0.25
  9
$PSOLHEIGHT
 40
4.0
  9
$LOFTANG1
 40
1.570796326794897
  9
$LOFTANG2
 40
1.570796326794897
  9
$LOFTMAG1
 40
0.0
  9
$LOFTMAG2
 40
0.0
  9
$LOFTPARAM
 70
     7
  9
$LOFTNORMALS
280
     1
  9
$LATITUDE
 40
37.795
  9
$LONGITUDE
 40
-122.394
  9
$NORTHDIRECTION
 40
0.0
  9
$TIMEZONE
 70
 -8000
  9
$LIGHTGLYPHDISPLAY
280
     1
  9
$TILEMODELIGHTSYNCH
280
     1
  9
$SOLIDHIST
280
     1
  9
$SHOWHIST
280
     1
  9
$DWFFRAME
280
     2
  9
$DGNFRAME
280
     2
  9
$REALWORLDSCALE
290
     1
  9
$INTERFERECOLOR
 62
   256
  9
$CSHADOW
280
     0
  9
$SHADOWPLANELOCATION
 40
0.0
  0
ENDSEC
  0
SECTION
  2
CLASSES
  0
CLASS
  1
SCALE
  2
AcDbScale
  3
ObjectDBX Classes
 90
     1153
 91
        4
280
     0
281
     0
  0
CLASS
  1
DICTIONARYVAR
  2
AcDbDictionaryVar
  3
ObjectDBX Classes
 90
        0
 91
        4
280
     0
281
     0
  0
ENDSEC
  0
SECTION
  2
TABLES
  0
TABLE
  2
VPORT
  5
8
330
0
100
AcDbSymbolTable
 70
     1
  0
VPORT
  5
1E
330
8
100
AcDbSymbolTableRecord
100
AcDbViewportTableRecord
  2
*ACTIVE
 70
     0
 10
0.0
 20
0.0
 11
1.0
 21
1.0
 12
2275.2912
 22
866.2116
 13
0.0
 23
0.0
 14
0.5
 24
0.5
 15
0.5
 25
0.5
 16
0.0
 26
0.0
 36
1.0
 17
0.0
 27
0.0
 37
0.0
 40
8.127
 41
1.7215
 42
50.0
 43
0.0
 44
0.0
 50
0.0
 51
0.0
 71
     0
 72
   100
 73
     1
 74
     1
 75
     0
 76
     0
 77
     0
 78
     0
281
     0
 65
     1
110
0.0
120
0.0
130
0.0
111
1.0
121
0.0
131
0.0
112
0.0
122
1.0
132
0.0
 79
     0
146
0.0
 60
     3
 61
     5
292
     1
282
     1
141
0.0
142
0.0
 63
   250
  0
ENDTAB
  0
TABLE
  2
LTYPE
  5
5
330
0
100
AcDbSymbolTable
 70
     1
  0
LTYPE
  5
12
330
5
100
AcDbSymbolTableRecord
100
AcDbLinetypeTableRecord
  2
BYBLOCK
 70
     0
  3

 72
    65
 73
     0
 40
0.0
  0
LTYPE
  5
13
330
5
100
AcDbSymbolTableRecord
100
AcDbLinetypeTableRecord
  2
BYLAYER
 70
     0
  3

 72
    65
 73
     0
 40
0.0
  0
LTYPE
  5
14
330
5
100
AcDbSymbolTableRecord
100
AcDbLinetypeTableRecord
  2
CONTINUOUS
 70
     0
  3
Solid line
 72
    65
 73
     0
 40
0.0
  0
ENDTAB
  0
TABLE
  2
LAYER
  5
2
330
0
100
AcDbSymbolTable
 70
     2
  0
LAYER
  5
E
330
2
100
AcDbSymbolTableRecord
100
AcDbLayerTableRecord
  2
0
 70
     0
 62
     7
  6
CONTINUOUS
370
    -3
390
0
347
0
  0
LAYER
  5
20
330
2
100
AcDbSymbolTableRecord
100
AcDbLayerTableRecord
  2
default
 70
     0
 62
     7
  6
CONTINUOUS
370
    -3
390
0
347
0
  0
ENDTAB
  0
TABLE
  2
STYLE
  5
3
330
0
100
AcDbSymbolTable
 70
     2
  0
STYLE
  5
F
330
3
100
AcDbSymbolTableRecord
100
AcDbTextStyleTableRecord
  2
STANDARD
 70
     0
 40
0.0
 41
1.0
 50
0.0
 71
     0
 42
0.2
  3
txt
  4

  0
STYLE
  5
21
330
3
100
AcDbSymbolTableRecord
100
AcDbTextStyleTableRecord
  2
Arial
 70
     0
 40
0.0
 41
1.0
 50
0.0
 71
     0
 42
0.2
  3
arial.ttf
  4

  0
ENDTAB
  0
TABLE
  2
VIEW
  5
6
330
0
100
AcDbSymbolTable
 70
     0
  0
ENDTAB
  0
TABLE
  2
UCS
  5
7
330
0
100
AcDbSymbolTable
 70
     0
  0
ENDTAB
  0
TABLE
  2
APPID
  5
9
330
0
100
AcDbSymbolTable
 70
     1
  0
APPID
  5
10
330
9
100
AcDbSymbolTableRecord
100
AcDbRegAppTableRecord
  2
ACAD
 70
     0
  0
ENDTAB
  0
TABLE
  2
DIMSTYLE
  5
A
330
0
100
AcDbSymbolTable
 70
     1
100
AcDbDimStyleTable
  0
DIMSTYLE
105
1D
330
A
100
AcDbSymbolTableRecord
100
AcDbDimStyleTableRecord
  2
STANDARD
 70
     0
340
F
  0
ENDTAB
  0
TABLE
  2
BLOCK_RECORD
  5
1
330
0
100
AcDbSymbolTable
 70
     0
  0
BLOCK_RECORD
  5
18
330
1
100
AcDbSymbolTableRecord
100
AcDbBlockTableRecord
  2
*MODEL_SPACE
340
23F
 70
     0
280
     1
281
     0
  0
BLOCK_RECORD
  5
15
330
1
100
AcDbSymbolTableRecord
100
AcDbBlockTableRecord
  2
*PAPER_SPACE
340
240
 70
     0
280
     1
281
     0
  0
ENDTAB
  0
ENDSEC
  0
SECTION
  2
BLOCKS
  0
BLOCK
  5
19
330
18
100
AcDbEntity
  8
0
100
AcDbBlockBegin
  2
*MODEL_SPACE
 70
     0
 10
0.0
 20
0.0
 30
0.0
  3
*MODEL_SPACE
  1
     0
  0
ENDBLK
  5
1A
330
18
100
AcDbEntity
  8
0
100
AcDbBlockEnd
  0
BLOCK
  5
16
330
15
100
AcDbEntity
 67
     1
  8
0
100
AcDbBlockBegin
  2
*PAPER_SPACE
 70
     0
 10
0.0
 20
0.0
 30
0.0
  3
*PAPER_SPACE
  1
     0
  0
ENDBLK
  5
17
330
15
100
AcDbEntity
 67
     1
  8
0
100
AcDbBlockEnd
  0
ENDSEC
  0
SECTION
  2
ENTITIES
  0
POINT
  5
22
330
18
100
AcDbEntity
  8
default
 62
     1
100
AcDbPoint
 10
0.0
 20
0.0
 30
0.0
  0
LINE
  5
23
330
18
100
AcDbEntity
  8
default
100
AcDbLine
 10
1120.0
 20
81.0
 30
0.0
 11
1120.0
 21
661.0
 31
0.0
  0
LINE
  5
24
330
18
100
AcDbEntity
  8
default
100
AcDbLine
 10
980.0
 20
81.0
 30
0.0
 11
980.0
 21
661.0
 31
0.0
  0
LINE
  5
25
330
18
100
AcDbEntity
  8
default
100
AcDbLine
 10
1116.0
 20
661.0
 30
0.0
 11
1116.0
 21
665.0
 31
0.0
  0
LINE
  5
26
330
18
100
AcDbEntity
  8
default
100
AcDbLine
 10
984.0
 20
661.0
 30
0.0
 11
984.0
 21
665.0
 31
0.0
  0
LINE
  5
27
330
18
100
AcDbEntity
  8
default
100
AcDbLine
 10
720.0
 20
0.0
 30
0.0
 11
1210.0
 21
0.0
 31
0.0
  0
LINE
  5
28
330
18
100
AcDbEntity
  8
default
100
AcDbLine
 10
1070.0
 20
281.0
 30
0.0
 11
1070.0
 21
861.0
 31
0.0
  0
LINE
  5
29
330
18
100
AcDbEntity
  8
default
100
AcDbLine
 10
1030.0
 20
281.0
 30
0.0
 11
1030.0
 21
861.0
 31
0.0
  0
LINE
  5
2A
330
18
100
AcDbEntity
  8
default
100
AcDbLine
 10
1030.0
 20
276.0
 30
0.0
 11
1030.0
 21
281.0
 31
0.0
  0
LINE
  5
2B
330
18
100
AcDbEntity
  8
default
100
AcDbLine
 10
1070.0
 20
276.0
 30
0.0
 11
1070.0
 21
281.0
 31
0.0
  0
LINE
  5
2C
330
18
100
AcDbEntity
  8
default
100
AcDbLine
 10
1030.0
 20
281.0
 30
0.0
 11
1070.0
 21
281.0
 31
0.0
  0
LINE
  5
2D
330
18
100
AcDbEntity
  8
default
100
AcDbLine
 10
1030.0
 20
276.0
 30
0.0
 11
1070.0
 21
276.0
 31
0.0
  0
LINE
  5
2E
330
18
100
AcDbEntity
  8
default
100
AcDbLine
 10
1010.0
 20
710.0
 30
0.0
 11
1030.0
 21
710.0
 31
0.0
  0
LINE
  5
2F
330
18
100
AcDbEntity
  8
default
100
AcDbLine
 10
1070.0
 20
710.0
 30
0.0
 11
1090.0
 21
710.0
 31
0.0
  0
LINE
  5
30
330
18
100
AcDbEntity
  8
default
100
AcDbLine
 10
1010.0
 20
700.0
 30
0.0
 11
1030.0
 21
700.0
 31
0.0
  0
LINE
  5
31
330
18
100
AcDbEntity
  8
default
100
AcDbLine
 10
1010.0
 20
700.0
 30
0.0
 11
1010.0
 21
710.0
 31
0.0
  0
LINE
  5
32
330
18
100
AcDbEntity
  8
default
100
AcDbLine
 10
1090.0
 20
700.0
 30
0.0
 11
1090.0
 21
710.0
 31
0.0
  0
LINE
  5
33
330
18
100
AcDbEntity
  8
default
100
AcDbLine
 10
1070.0
 20
700.0
 30
0.0
 11
1090.0
 21
700.0
 31
0.0
  0
LINE
  5
34
330
18
100
AcDbEntity
  8
default
100
AcDbLine
 10
972.5
 20
665.0
 30
0.0
 11
1030.0
 21
665.0
 31
0.0
  0
LINE
  5
35
330
18
100
AcDbEntity
  8
default
100
AcDbLine
 10
1070.0
 20
665.0
 30
0.0
 11
1127.5
 21
665.0
 31
0.0
  0
LINE
  5
36
330
18
100
AcDbEntity
  8
default
100
AcDbLine
 10
980.0
 20
661.0
 30
0.0
 11
1030.0
 21
661.0
 31
0.0
  0
LINE
  5
37
330
18
100
AcDbEntity
  8
default
100
AcDbLine
 10
1070.0
 20
661.0
 30
0.0
 11
1120.0
 21
661.0
 31
0.0
  0
LINE
  5
38
330
18
100
AcDbEntity
  8
default
100
AcDbLine
 10
972.5
 20
677.0
 30
0.0
 11
1030.0
 21
677.0
 31
0.0
  0
LINE
  5
39
330
18
100
AcDbEntity
  8
default
100
AcDbLine
 10
1070.0
 20
677.0
 30
0.0
 11
1127.5
 21
677.0
 31
0.0
  0
LINE
  5
3A
330
18
100
AcDbEntity
  8
default
100
AcDbLine
 10
975.0
 20
677.0
 30
0.0
 11
975.0
 21
690.0
 31
0.0
  0
LINE
  5
3B
330
18
100
AcDbEntity
  8
default
100
AcDbLine
 10
1125.0
 20
677.0
 30
0.0
 11
1125.0
 21
690.0
 31
0.0
  0
LINE
  5
3C
330
18
100
AcDbEntity
  8
default
100
AcDbLine
 10
975.0
 20
690.0
 30
0.0
 11
1030.0
 21
690.0
 31
0.0
  0
LINE
  5
3D
330
18
100
AcDbEntity
  8
default
100
AcDbLine
 10
1070.0
 20
690.0
 30
0.0
 11
1125.0
 21
690.0
 31
0.0
  0
LINE
  5
3E
330
18
100
AcDbEntity
  8
default
100
AcDbLine
 10
972.5
 20
665.0
 30
0.0
 11
972.5
 21
677.0
 31
0.0
  0
LINE
  5
3F
330
18
100
AcDbEntity
  8
default
100
AcDbLine
 10
1127.5
 20
665.0
 30
0.0
 11
1127.5
 21
677.0
 31
0.0
  0
LINE
  5
40
330
18
100
AcDbEntity
  8
default
100
AcDbLine
 10
410.0
 20
712.5
 30
0.0
 11
1030.0
 21
712.5
 31
0.0
  0
LINE
  5
41
330
18
100
AcDbEntity
  8
default
100
AcDbLine
 10
3400.0
 20
81.0
 30
0.0
 11
3400.0
 21
661.0
 31
0.0
  0
LINE
  5
42
330
18
100
AcDbEntity
  8
default
100
AcDbLine
 10
3260.0
 20
81.0
 30
0.0
 11
3260.0
 21
661.0
 31
0.0
  0
LINE
  5
43
330
18
100
AcDbEntity
  8
default
100
AcDbLine
 10
3260.0
 20
81.0
 30
0.0
 11
3400.0
 21
81.0
 31
0.0
  0
ELLIPSE
  5
44
330
18
100
AcDbEntity
  8
default
100
AcDbEllipse
 10
3359.2688
 20
17.5328
 30
0.0
 11
0.4379000000000001
 21
2.633100000000001
 31
0.0
210
0.0
220
0.0
230
0.9999999999999998
 40
0.115236
 41
4.110275
 42
5.681071
  0
LINE
  5
45
330
18
100
AcDbEntity
  8
default
100
AcDbLine
 10
3359.807
 20
19.6746
 30
0.0
 11
3359.807
 21
81.0
 31
0.0
  0
LINE
  5
46
330
18
100
AcDbEntity
  8
default
100
AcDbLine
 10
3300.193
 20
19.6746
 30
0.0
 11
3300.193
 21
81.0
 31
0.0
  0
LINE
  5
47
330
18
100
AcDbEntity
  8
default
100
AcDbLine
 10
3400.0
 20
81.0
 30
0.0
 11
3400.0
 21
661.0
 31
0.0
  0
LINE
  5
48
330
18
100
AcDbEntity
  8
default
100
AcDbLine
 10
3260.0
 20
81.0
 30
0.0
 11
3260.0
 21
661.0
 31
0.0
  0
LINE
  5
49
330
18
100
AcDbEntity
  8
default
100
AcDbLine
 10
3396.0
 20
661.0
 30
0.0
 11
3396.0
 21
665.0
 31
0.0
  0
LINE
  5
4A
330
18
100
AcDbEntity
  8
default
100
AcDbLine
 10
3264.0
 20
661.0
 30
0.0
 11
3264.0
 21
665.0
 31
0.0
  0
LINE
  5
4B
330
18
100
AcDbEntity
  8
default
100
AcDbLine
 10
3290.0
 20
700.0
 30
0.0
 11
3290.0
 21
710.0
 31
0.0
  0
LINE
  5
4C
330
18
100
AcDbEntity
  8
default
100
AcDbLine
 10
3370.0
 20
700.0
 30
0.0
 11
3370.0
 21
710.0
 31
0.0
  0
LINE
  5
4D
330
18
100
AcDbEntity
  8
default
100
AcDbLine
 10
3255.0
 20
677.0
 30
0.0
 11
3255.0
 21
690.0
 31
0.0
  0
LINE
  5
4E
330
18
100
AcDbEntity
  8
default
100
AcDbLine
 10
3405.0
 20
677.0
 30
0.0
 11
3405.0
 21
690.0
 31
0.0
  0
LINE
  5
4F
330
18
100
AcDbEntity
  8
default
100
AcDbLine
 10
3252.5
 20
665.0
 30
0.0
 11
3252.5
 21
677.0
 31
0.0
  0
LINE
  5
50
330
18
100
AcDbEntity
  8
default
100
AcDbLine
 10
3407.5
 20
665.0
 30
0.0
 11
3407.5
 21
677.0
 31
0.0
  0
LINE
  5
51
330
18
100
AcDbEntity
  8
default
100
AcDbLine
 10
3252.5
 20
665.0
 30
0.0
 11
3407.5
 21
665.0
 31
0.0
  0
LINE
  5
52
330
18
100
AcDbEntity
  8
default
100
AcDbLine
 10
3260.0
 20
661.0
 30
0.0
 11
3400.0
 21
661.0
 31
0.0
  0
LINE
  5
53
330
18
100
AcDbEntity
  8
default
100
AcDbLine
 10
3252.5
 20
677.0
 30
0.0
 11
3407.5
 21
677.0
 31
0.0
  0
LINE
  5
54
330
18
100
AcDbEntity
  8
default
100
AcDbLine
 10
3255.0
 20
690.0
 30
0.0
 11
3405.0
 21
690.0
 31
0.0
  0
LINE
  5
55
330
18
100
AcDbEntity
  8
default
100
AcDbLine
 10
3290.0
 20
710.0
 30
0.0
 11
3370.0
 21
710.0
 31
0.0
  0
LINE
  5
56
330
18
100
AcDbEntity
  8
default
100
AcDbLine
 10
3290.0
 20
700.0
 30
0.0
 11
3370.0
 21
700.0
 31
0.0
  0
LINE
  5
57
330
18
100
AcDbEntity
  8
default
100
AcDbLine
 10
3336.0
 20
690.0
 30
0.0
 11
3336.0
 21
700.0
 31
0.0
  0
LINE
  5
58
330
18
100
AcDbEntity
  8
default
100
AcDbLine
 10
3324.0
 20
690.0
 30
0.0
 11
3324.0
 21
700.0
 31
0.0
  0
LINE
  5
59
330
18
100
AcDbEntity
  8
default
100
AcDbLine
 10
3552.0
 20
281.0
 30
0.0
 11
3552.0
 21
861.0
 31
0.0
  0
LINE
  5
5A
330
18
100
AcDbEntity
  8
default
100
AcDbLine
 10
3532.0
 20
281.0
 30
0.0
 11
3532.0
 21
861.0
 31
0.0
  0
LINE
  5
5B
330
18
100
AcDbEntity
  8
default
100
AcDbLine
 10
3532.0
 20
276.0
 30
0.0
 11
3532.0
 21
281.0
 31
0.0
  0
LINE
  5
5C
330
18
100
AcDbEntity
  8
default
100
AcDbLine
 10
3552.0
 20
276.0
 30
0.0
 11
3552.0
 21
281.0
 31
0.0
  0
LINE
  5
5D
330
18
100
AcDbEntity
  8
default
100
AcDbLine
 10
3532.0
 20
281.0
 30
0.0
 11
3552.0
 21
281.0
 31
0.0
  0
LINE
  5
5E
330
18
100
AcDbEntity
  8
default
100
AcDbLine
 10
3532.0
 20
276.0
 30
0.0
 11
3552.0
 21
276.0
 31
0.0
  0
LINE
  5
5F
330
18
100
AcDbEntity
  8
default
100
AcDbLine
 10
3400.0
 20
549.0
 30
0.0
 11
3532.0
 21
549.0
 31
0.0
  0
LINE
  5
60
330
18
100
AcDbEntity
  8
default
100
AcDbLine
 10
3400.0
 20
573.0
 30
0.0
 11
3532.0
 21
573.0
 31
0.0
  0
LINE
  5
61
330
18
100
AcDbEntity
  8
default
100
AcDbLine
 10
3400.0
 20
399.0
 30
0.0
 11
3532.0
 21
399.0
 31
0.0
  0
LINE
  5
62
330
18
100
AcDbEntity
  8
default
100
AcDbLine
 10
3400.0
 20
423.0
 30
0.0
 11
3532.0
 21
423.0
 31
0.0
  0
SOLID
  5
63
330
18
100
AcDbEntity
  8
default
100
AcDbTrace
 10
3633.9083
 20
537.5115
 30
0.0
 11
3626.0917
 21
537.5115
 31
0.0
 12
3630.0
 22
561.0
 32
0.0
 13
3630.0
 23
561.0
 33
0.0
  0
SOLID
  5
64
330
18
100
AcDbEntity
  8
default
100
AcDbTrace
 10
3626.0917
 20
434.4885
 30
0.0
 11
3633.9083
 21
434.4885
 31
0.0
 12
3630.0
 22
411.0
 32
0.0
 13
3630.0
 23
411.0
 33
0.0
  0
LINE
  5
65
330
18
100
AcDbEntity
  8
default
100
AcDbLine
 10
3630.0
 20
498.5208
 30
0.0
 11
3630.0
 21
561.0
 31
0.0
  0
LINE
  5
66
330
18
100
AcDbEntity
  8
default
100
AcDbLine
 10
3630.0
 20
411.0
 30
0.0
 11
3630.0
 21
461.4792
 31
0.0
  0
TEXT
  5
67
330
18
100
AcDbEntity
  8
default
100
AcDbText
 10
3594.3428
 20
471.8131
 30
0.0
 40
16.0421
  1
150mm
  7
Arial
100
AcDbText
  0
LINE
  5
68
330
18
100
AcDbEntity
  8
default
100
AcDbLine
 10
3557.9375
 20
561.0
 30
0.0
 11
3645.875
 21
561.0
 31
0.0
  0
LINE
  5
69
330
18
100
AcDbEntity
  8
default
100
AcDbLine
 10
3557.9375
 20
411.0
 30
0.0
 11
3645.875
 21
411.0
 31
0.0
  0
LINE
  5
6A
330
18
100
AcDbEntity
  8
default
100
AcDbLine
 10
3474.5928
 20
398.2689
 30
0.0
 11
3588.2695
 21
305.5762
 31
0.0
  0
SOLID
  5
6B
330
18
100
AcDbEntity
  8
default
100
AcDbTrace
 10
3495.2665
 20
386.4644
 30
0.0
 11
3490.3269
 21
380.3863
 31
0.0
 12
3474.5928
 22
398.2689
 32
0.0
 13
3474.5928
 23
398.2689
 33
0.0
  0
LINE
  5
6C
330
18
100
AcDbEntity
  8
default
100
AcDbLine
 10
3588.2695
 20
305.5762
 30
0.0
 11
3601.3184
 21
305.5762
 31
0.0
  0
TEXT
  5
6D
330
18
100
AcDbEntity
  8
default
100
AcDbText
 10
3609.2559
 20
297.3893
 30
0.0
 40
16.0421
  1
150mm long armrest-screws (without threaded part).
  7
Arial
100
AcDbText
  0
SOLID
  5
6E
330
18
100
AcDbEntity
  8
default
100
AcDbTrace
 10
884.2109
 20
159.4885
 30
0.0
 11
892.0274
 21
159.4885
 31
0.0
 12
888.1191
 22
136.0
 32
0.0
 13
888.1191
 23
136.0
 33
0.0
  0
SOLID
  5
6F
330
18
100
AcDbEntity
  8
default
100
AcDbTrace
 10
892.0274
 20
57.5115
 30
0.0
 11
884.2109
 21
57.5115
 31
0.0
 12
888.1191
 22
81.0
 32
0.0
 13
888.1191
 23
81.0
 33
0.0
  0
LINE
  5
70
330
18
100
AcDbEntity
  8
default
100
AcDbLine
 10
888.1191
 20
47.5042
 30
0.0
 11
888.1191
 21
81.0
 31
0.0
  0
LINE
  5
71
330
18
100
AcDbEntity
  8
default
100
AcDbLine
 10
888.1191
 20
136.0
 30
0.0
 11
888.1191
 21
183.625
 31
0.0
  0
LINE
  5
72
330
18
100
AcDbEntity
  8
default
100
AcDbLine
 10
888.1191
 20
47.5042
 30
0.0
 11
911.9316
 21
47.5042
 31
0.0
  0
TEXT
  5
73
330
18
100
AcDbEntity
  8
default
100
AcDbText
 10
919.8691
 20
39.3172
 30
0.0
 40
16.0421
  1
55.00
  7
Arial
100
AcDbText
  0
LINE
  5
74
330
18
100
AcDbEntity
  8
default
100
AcDbLine
 10
872.2441
 20
81.0
 30
0.0
 11
972.0625
 21
81.0
 31
0.0
  0
SOLID
  5
75
330
18
100
AcDbEntity
  8
default
100
AcDbTrace
 10
775.7275
 20
112.5115
 30
0.0
 11
767.911
 21
112.5115
 31
0.0
 12
771.8192
 22
136.0
 32
0.0
 13
771.8192
 23
136.0
 33
0.0
  0
SOLID
  5
76
330
18
100
AcDbEntity
  8
default
100
AcDbTrace
 10
767.911
 20
23.4885
 30
0.0
 11
775.7275
 21
23.4885
 31
0.0
 12
771.8192
 22
0.0
 32
0.0
 13
771.8192
 23
0.0
 33
0.0
  0
LINE
  5
77
330
18
100
AcDbEntity
  8
default
100
AcDbLine
 10
771.8192
 20
85.2631
 30
0.0
 11
771.8192
 21
136.0
 31
0.0
  0
LINE
  5
78
330
18
100
AcDbEntity
  8
default
100
AcDbLine
 10
771.8192
 20
0.0
 30
0.0
 11
771.8192
 21
48.2214
 31
0.0
  0
SOLID
  5
79
330
18
100
AcDbEntity
  8
default
100
AcDbTrace
 10
3168.6486
 20
552.5115
 30
0.0
 11
3160.832
 21
552.5115
 31
0.0
 12
3164.7403
 22
576.0
 32
0.0
 13
3164.7403
 23
576.0
 33
0.0
  0
SOLID
  5
7A
330
18
100
AcDbEntity
  8
default
100
AcDbTrace
 10
3160.832
 20
519.4885
 30
0.0
 11
3168.6486
 21
519.4885
 31
0.0
 12
3164.7403
 22
496.0
 32
0.0
 13
3164.7403
 23
496.0
 33
0.0
  0
LINE
  5
7B
330
18
100
AcDbEntity
  8
default
100
AcDbLine
 10
3164.7403
 20
472.9295
 30
0.0
 11
3164.7403
 21
576.0
 31
0.0
  0
LINE
  5
7C
330
18
100
AcDbEntity
  8
default
100
AcDbLine
 10
3164.7403
 20
472.9295
 30
0.0
 11
3188.5528
 21
472.9295
 31
0.0
  0
TEXT
  5
7D
330
18
100
AcDbEntity
  8
default
100
AcDbText
 10
3196.4903
 20
464.7425
 30
0.0
 40
16.0421
  1
80mm
  7
Arial
100
AcDbText
  0
SOLID
  5
7E
330
18
100
AcDbEntity
  8
default
100
AcDbTrace
 10
632.6301
 20
192.5115
 30
0.0
 11
624.8136
 21
192.5115
 31
0.0
 12
628.7218
 22
216.0
 32
0.0
 13
628.7218
 23
216.0
 33
0.0
  0
SOLID
  5
7F
330
18
100
AcDbEntity
  8
default
100
AcDbTrace
 10
624.8136
 20
159.4885
 30
0.0
 11
632.6301
 21
159.4885
 31
0.0
 12
628.7218
 22
136.0
 32
0.0
 13
628.7218
 23
136.0
 33
0.0
  0
LINE
  5
80
330
18
100
AcDbEntity
  8
default
100
AcDbLine
 10
628.7218
 20
89.3197
 30
0.0
 11
628.7218
 21
216.0
 31
0.0
  0
LINE
  5
81
330
18
100
AcDbEntity
  8
default
100
AcDbLine
 10
628.7218
 20
89.3197
 30
0.0
 11
652.5343
 21
89.3197
 31
0.0
  0
TEXT
  5
82
330
18
100
AcDbEntity
  8
default
100
AcDbText
 10
660.4718
 20
81.1327
 30
0.0
 40
16.0421
  1
80mm
  7
Arial
100
AcDbText
  0
SOLID
  5
83
330
18
100
AcDbEntity
  8
default
100
AcDbTrace
 10
891.153
 20
472.5115
 30
0.0
 11
883.3365
 21
472.5115
 31
0.0
 12
887.2447
 22
496.0
 32
0.0
 13
887.2447
 23
496.0
 33
0.0
  0
SOLID
  5
84
330
18
100
AcDbEntity
  8
default
100
AcDbTrace
 10
883.3365
 20
239.4885
 30
0.0
 11
891.153
 21
239.4885
 31
0.0
 12
887.2447
 22
216.0
 32
0.0
 13
887.2447
 23
216.0
 33
0.0
  0
LINE
  5
85
330
18
100
AcDbEntity
  8
default
100
AcDbLine
 10
887.2447
 20
366.8389
 30
0.0
 11
887.2447
 21
496.0
 31
0.0
  0
LINE
  5
86
330
18
100
AcDbEntity
  8
default
100
AcDbLine
 10
887.2447
 20
216.0
 30
0.0
 11
887.2447
 21
329.7973
 31
0.0
  0
TEXT
  5
87
330
18
100
AcDbEntity
  8
default
100
AcDbText
 10
850.6891
 20
340.1311
 30
0.0
 40
16.0421
  1
280mm
  7
Arial
100
AcDbText
  0
SOLID
  5
88
330
18
100
AcDbEntity
  8
default
100
AcDbTrace
 10
759.8962
 20
689.0115
 30
0.0
 11
752.0797
 21
689.0115
 31
0.0
 12
755.988
 22
712.5
 32
0.0
 13
755.988
 23
712.5
 33
0.0
  0
SOLID
  5
89
330
18
100
AcDbEntity
  8
default
100
AcDbTrace
 10
752.0797
 20
599.4885
 30
0.0
 11
759.8962
 21
599.4885
 31
0.0
 12
755.988
 22
576.0
 32
0.0
 13
755.988
 23
576.0
 33
0.0
  0
LINE
  5
8A
330
18
100
AcDbEntity
  8
default
100
AcDbLine
 10
755.988
 20
656.5406
 30
0.0
 11
755.988
 21
712.5
 31
0.0
  0
LINE
  5
8B
330
18
100
AcDbEntity
  8
default
100
AcDbLine
 10
755.988
 20
576.0
 30
0.0
 11
755.988
 21
619.4989
 31
0.0
  0
TEXT
  5
8C
330
18
100
AcDbEntity
  8
default
100
AcDbText
 10
700.4624
 20
629.8328
 30
0.0
 40
16.0421
  1
~ 136.5mm
  7
Arial
100
AcDbText
  0
SOLID
  5
8D
330
18
100
AcDbEntity
  8
default
100
AcDbTrace
 10
892.0274
 20
637.5115
 30
0.0
 11
884.2109
 21
637.5115
 31
0.0
 12
888.1191
 22
661.0
 32
0.0
 13
888.1191
 23
661.0
 33
0.0
  0
SOLID
  5
8E
330
18
100
AcDbEntity
  8
default
100
AcDbTrace
 10
884.2109
 20
599.4885
 30
0.0
 11
892.0274
 21
599.4885
 31
0.0
 12
888.1191
 22
576.0
 32
0.0
 13
888.1191
 23
576.0
 33
0.0
  0
LINE
  5
8F
330
18
100
AcDbEntity
  8
default
100
AcDbLine
 10
888.1191
 20
636.1723
 30
0.0
 11
888.1191
 21
661.0
 31
0.0
  0
LINE
  5
90
330
18
100
AcDbEntity
  8
default
100
AcDbLine
 10
888.1191
 20
576.0
 30
0.0
 11
888.1191
 21
599.1307
 31
0.0
  0
TEXT
  5
91
330
18
100
AcDbEntity
  8
default
100
AcDbText
 10
857.9628
 20
609.4646
 30
0.0
 40
16.0421
  1
85mm
  7
Arial
100
AcDbText
  0
LINE
  5
92
330
18
100
AcDbEntity
  8
default
100
AcDbLine
 10
872.2441
 20
661.0
 30
0.0
 11
972.0625
 21
661.0
 31
0.0
  0
SOLID
  5
93
330
18
100
AcDbEntity
  8
default
100
AcDbTrace
 10
575.0001
 20
552.5115
 30
0.0
 11
567.1836
 21
552.5115
 31
0.0
 12
571.0919
 22
576.0
 32
0.0
 13
571.0919
 23
576.0
 33
0.0
  0
SOLID
  5
94
330
18
100
AcDbEntity
  8
default
100
AcDbTrace
 10
567.1836
 20
519.4885
 30
0.0
 11
575.0001
 21
519.4885
 31
0.0
 12
571.0919
 22
496.0
 32
0.0
 13
571.0919
 23
496.0
 33
0.0
  0
LINE
  5
95
330
18
100
AcDbEntity
  8
default
100
AcDbLine
 10
571.0919
 20
496.0
 30
0.0
 11
571.0919
 21
623.6119
 31
0.0
  0
LINE
  5
96
330
18
100
AcDbEntity
  8
default
100
AcDbLine
 10
571.0919
 20
623.6119
 30
0.0
 11
594.9044
 21
623.6119
 31
0.0
  0
TEXT
  5
97
330
18
100
AcDbEntity
  8
default
100
AcDbText
 10
602.8419
 20
615.4249
 30
0.0
 40
16.0421
  1
80mm
  7
Arial
100
AcDbText
  0
SOLID
  5
98
330
18
100
AcDbEntity
  8
default
100
AcDbTrace
 10
1006.5115
 20
531.5311
 30
0.0
 11
1006.5115
 21
539.3736
 31
0.0
 12
1030.0
 22
535.4523
 32
0.0
 13
1030.0
 23
535.4523
 33
0.0
  0
SOLID
  5
99
330
18
100
AcDbEntity
  8
default
100
AcDbTrace
 10
1093.4885
 20
539.3736
 30
0.0
 11
1093.4885
 21
531.5311
 31
0.0
 12
1070.0
 22
535.4523
 32
0.0
 13
1070.0
 23
535.4523
 33
0.0
  0
LINE
  5
9A
330
18
100
AcDbEntity
  8
default
100
AcDbLine
 10
1070.0
 20
535.4523
 30
0.0
 11
1157.3777
 21
535.4523
 31
0.0
  0
LINE
  5
9B
330
18
100
AcDbEntity
  8
default
100
AcDbLine
 10
982.375
 20
535.4523
 30
0.0
 11
1030.0
 21
535.4523
 31
0.0
  0
SOLID
  5
9C
330
18
100
AcDbEntity
  8
default
100
AcDbTrace
 10
1003.4885
 20
246.925
 30
0.0
 11
1003.4885
 21
239.0825
 31
0.0
 12
980.0
 22
243.0037
 32
0.0
 13
980.0
 23
243.0037
 33
0.0
  0
SOLID
  5
9D
330
18
100
AcDbEntity
  8
default
100
AcDbTrace
 10
1096.5115
 20
239.0825
 30
0.0
 11
1096.5115
 21
246.925
 31
0.0
 12
1120.0
 22
243.0037
 32
0.0
 13
1120.0
 23
243.0037
 33
0.0
  0
LINE
  5
9E
330
18
100
AcDbEntity
  8
default
100
AcDbLine
 10
980.0
 20
243.0037
 30
0.0
 11
1170.6702
 21
243.0037
 31
0.0
  0
TEXT
  5
9F
330
18
100
AcDbEntity
  8
default
100
AcDbText
 10
1178.6077
 20
234.8168
 30
0.0
 40
16.0421
  1
140mm
  7
Arial
100
AcDbText
  0
SOLID
  5
A0
330
18
100
AcDbEntity
  8
default
100
AcDbTrace
 10
3283.4885
 20
192.8954
 30
0.0
 11
3283.4885
 21
185.0529
 31
0.0
 12
3260.0
 22
188.9742
 32
0.0
 13
3260.0
 23
188.9742
 33
0.0
  0
SOLID
  5
A1
330
18
100
AcDbEntity
  8
default
100
AcDbTrace
 10
3376.5115
 20
185.0529
 30
0.0
 11
3376.5115
 21
192.8954
 31
0.0
 12
3400.0
 22
188.9742
 32
0.0
 13
3400.0
 23
188.9742
 33
0.0
  0
LINE
  5
A2
330
18
100
AcDbEntity
  8
default
100
AcDbLine
 10
3260.0
 20
188.9742
 30
0.0
 11
3442.2512
 21
188.9742
 31
0.0
  0
TEXT
  5
A3
330
18
100
AcDbEntity
  8
default
100
AcDbText
 10
3450.1887
 20
180.7872
 30
0.0
 40
16.0421
  1
140mm
  7
Arial
100
AcDbText
  0
LINE
  5
A4
330
18
100
AcDbEntity
  8
default
100
AcDbLine
 10
790.9074
 20
218.4049
 30
0.0
 11
1172.7059
 21
328.8653
 31
0.0
  0
SOLID
  5
A5
330
18
100
AcDbEntity
  8
default
100
AcDbTrace
 10
812.3844
 20
228.6996
 30
0.0
 11
814.5568
 21
221.166
 31
0.0
 12
790.9074
 22
218.4049
 32
0.0
 13
790.9074
 23
218.4049
 33
0.0
  0
LINE
  5
A6
330
18
100
AcDbEntity
  8
default
100
AcDbLine
 10
1172.7059
 20
328.8653
 30
0.0
 11
1203.1884
 21
328.8653
 31
0.0
  0
LINE
  5
A7
330
18
100
AcDbEntity
  8
default
100
AcDbLine
 10
788.5062
 20
496.9572
 30
0.0
 11
1172.7059
 21
328.8653
 31
0.0
  0
SOLID
  5
A8
330
18
100
AcDbEntity
  8
default
100
AcDbTrace
 10
811.5918
 20
491.1349
 30
0.0
 11
808.4587
 21
483.9499
 31
0.0
 12
788.5062
 22
496.9572
 32
0.0
 13
788.5062
 23
496.9572
 33
0.0
  0
LINE
  5
A9
330
18
100
AcDbEntity
  8
default
100
AcDbLine
 10
1172.7059
 20
328.8653
 30
0.0
 11
1203.1884
 21
328.8653
 31
0.0
  0
TEXT
  5
AA
330
18
100
AcDbEntity
  8
default
100
AcDbText
 10
1211.1259
 20
320.6784
 30
0.0
 40
16.0421
  1
Beams on the raer legs
  7
Arial
100
AcDbText
  0
LINE
  5
AB
330
18
100
AcDbEntity
  8
default
100
AcDbLine
 10
3124.9209
 20
496.9572
 30
0.0
 11
3453.8919
 21
76.7274
 31
0.0
  0
SOLID
  5
AC
330
18
100
AcDbEntity
  8
default
100
AcDbTrace
 10
3142.4771
 20
480.8791
 30
0.0
 11
3136.3222
 21
476.0448
 31
0.0
 12
3124.9209
 22
496.9572
 32
0.0
 13
3124.9209
 23
496.9572
 33
0.0
  0
LINE
  5
AD
330
18
100
AcDbEntity
  8
default
100
AcDbLine
 10
3453.8919
 20
76.7274
 30
0.0
 11
3479.5719
 21
76.7274
 31
0.0
  0
TEXT
  5
AE
330
18
100
AcDbEntity
  8
default
100
AcDbText
 10
3487.5094
 20
68.5405
 30
0.0
 40
16.0421
  1
Beams between rear and front legs.
  7
Arial
100
AcDbText
  0
SOLID
  5
AF
330
18
100
AcDbEntity
  8
default
100
AcDbTrace
 10
3148.0391
 20
192.5115
 30
0.0
 11
3140.2226
 21
192.5115
 31
0.0
 12
3144.1309
 22
216.0
 32
0.0
 13
3144.1309
 23
216.0
 33
0.0
  0
SOLID
  5
B0
330
18
100
AcDbEntity
  8
default
100
AcDbTrace
 10
3140.2226
 20
159.4885
 30
0.0
 11
3148.0391
 21
159.4885
 31
0.0
 12
3144.1309
 22
136.0
 32
0.0
 13
3144.1309
 23
136.0
 33
0.0
  0
LINE
  5
B1
330
18
100
AcDbEntity
  8
default
100
AcDbLine
 10
3144.1309
 20
74.3261
 30
0.0
 11
3144.1309
 21
216.0
 31
0.0
  0
LINE
  5
B2
330
18
100
AcDbEntity
  8
default
100
AcDbLine
 10
3144.1309
 20
74.3261
 30
0.0
 11
3167.9434
 21
74.3261
 31
0.0
  0
TEXT
  5
B3
330
18
100
AcDbEntity
  8
default
100
AcDbText
 10
3175.8809
 20
66.1392
 30
0.0
 40
16.0421
  1
80mm
  7
Arial
100
AcDbText
  0
SOLID
  5
B4
330
18
100
AcDbEntity
  8
default
100
AcDbTrace
 10
3576.0917
 20
446.4885
 30
0.0
 11
3583.9083
 21
446.4885
 31
0.0
 12
3580.0
 22
423.0
 32
0.0
 13
3580.0
 23
423.0
 33
0.0
  0
SOLID
  5
B5
330
18
100
AcDbEntity
  8
default
100
AcDbTrace
 10
3583.9083
 20
375.5115
 30
0.0
 11
3576.0917
 21
375.5115
 31
0.0
 12
3580.0
 22
399.0
 32
0.0
 13
3580.0
 23
399.0
 33
0.0
  0
LINE
  5
B6
330
18
100
AcDbEntity
  8
default
100
AcDbLine
 10
3580.0
 20
354.8247
 30
0.0
 11
3580.0
 21
399.0
 31
0.0
  0
LINE
  5
B7
330
18
100
AcDbEntity
  8
default
100
AcDbLine
 10
3580.0
 20
423.0
 30
0.0
 11
3580.0
 21
470.625
 31
0.0
  0
LINE
  5
B8
330
18
100
AcDbEntity
  8
default
100
AcDbLine
 10
3580.0
 20
354.8247
 30
0.0
 11
3603.8125
 21
354.8247
 31
0.0
  0
TEXT
  5
B9
330
18
100
AcDbEntity
  8
default
100
AcDbText
 10
3611.75
 20
346.6377
 30
0.0
 40
16.0421
  1
24mm     Diameter of the armrest-screws.
  7
Arial
100
AcDbText
  0
LINE
  5
BA
330
18
100
AcDbEntity
  8
default
100
AcDbLine
 10
3539.9375
 20
423.0
 30
0.0
 11
3595.875
 21
423.0
 31
0.0
  0
LINE
  5
BB
330
18
100
AcDbEntity
  8
default
100
AcDbLine
 10
3539.9375
 20
399.0
 30
0.0
 11
3595.875
 21
399.0
 31
0.0
  0
LINE
  5
BC
330
18
100
AcDbEntity
  8
default
100
AcDbLine
 10
1081.7625
 20
29.7656
 30
0.0
 11
1193.1422
 21
107.4032
 31
0.0
  0
SOLID
  5
BD
330
18
100
AcDbEntity
  8
default
100
AcDbTrace
 10
1098.7968
 20
46.4141
 30
0.0
 11
1103.2665
 21
39.9804
 31
0.0
 12
1081.7625
 22
29.7656
 32
0.0
 13
1081.7625
 23
29.7656
 33
0.0
  0
LINE
  5
BE
330
18
100
AcDbEntity
  8
default
100
AcDbLine
 10
1193.1422
 20
107.4032
 30
0.0
 11
1236.3127
 21
107.4032
 31
0.0
  0
TEXT
  5
BF
330
18
100
AcDbEntity
  8
default
100
AcDbText
 10
1244.2502
 20
99.2163
 30
0.0
 40
16.0421
  1
Adjustable leg-chock 75mm +/-20 mm
  7
Arial
100
AcDbText
  0
SOLID
  5
C0
330
18
100
AcDbEntity
  8
default
100
AcDbTrace
 10
1229.3112
 20
57.5115
 30
0.0
 11
1221.4947
 21
57.5115
 31
0.0
 12
1225.403
 22
81.0
 32
0.0
 13
1225.403
 23
81.0
 33
0.0
  0
SOLID
  5
C1
330
18
100
AcDbEntity
  8
default
100
AcDbTrace
 10
1221.4947
 20
23.4885
 30
0.0
 11
1229.3112
 21
23.4885
 31
0.0
 12
1225.403
 22
0.0
 32
0.0
 13
1225.403
 23
0.0
 33
0.0
  0
LINE
  5
C2
330
18
100
AcDbEntity
  8
default
100
AcDbLine
 10
1225.403
 20
-40.3214
 30
0.0
 11
1225.403
 21
81.0
 31
0.0
  0
LINE
  5
C3
330
18
100
AcDbEntity
  8
default
100
AcDbLine
 10
1225.403
 20
-40.3214
 30
0.0
 11
1249.2155
 21
-40.3214
 31
0.0
  0
TEXT
  5
C4
330
18
100
AcDbEntity
  8
default
100
AcDbText
 10
1257.153
 20
-48.5084
 30
0.0
 40
16.0421
  1
81mm      According to adjustable leg-chocks
  7
Arial
100
AcDbText
  0
LINE
  5
C5
330
18
100
AcDbEntity
  8
default
100
AcDbLine
 10
1127.9375
 20
81.0
 30
0.0
 11
1241.278
 21
81.0
 31
0.0
  0
TEXT
  5
C6
330
18
100
AcDbEntity
  8
default
100
AcDbText
 10
1690.0
 20
399.9656
 30
0.0
 40
16.0421
  1
The height of the top-plate upper part from the ground
  7
Arial
100
AcDbText
  0
TEXT
  5
C7
330
18
100
AcDbEntity
  8
default
100
AcDbText
 10
1690.0
 20
369.9656
 30
0.0
 40
16.0421
  1
according to adjustable leg-chocks and height-sensing levelers.
  7
Arial
100
AcDbText
  0
TEXT
  5
C8
330
18
100
AcDbEntity
  8
default
100
AcDbText
 10
1314.8275
 20
-95.5821
 30
0.0
 40
16.0421
  1
Longer side of the leg-assembly.
  7
Arial
100
AcDbText
  0
LINE
  5
C9
330
18
100
AcDbEntity
  8
default
100
AcDbLine
 10
3204.0082
 20
135.8845
 30
0.0
 11
3453.8919
 21
76.7274
 31
0.0
  0
SOLID
  5
CA
330
18
100
AcDbEntity
  8
default
100
AcDbTrace
 10
3227.7653
 20
134.2892
 30
0.0
 11
3225.9646
 21
126.6577
 31
0.0
 12
3204.0082
 22
135.8845
 32
0.0
 13
3204.0082
 23
135.8845
 33
0.0
  0
LINE
  5
CB
330
18
100
AcDbEntity
  8
default
100
AcDbLine
 10
3453.8919
 20
76.7274
 30
0.0
 11
3470.8536
 21
76.7274
 31
0.0
  0
TEXT
  5
CC
330
18
100
AcDbEntity
  8
default
100
AcDbText
 10
3648.2734
 20
-41.4719
 30
0.0
 40
16.0421
  1
Shorter side of the leg-assembly.
  7
Arial
100
AcDbText
  0
TEXT
  5
CD
330
18
100
AcDbEntity
  8
default
100
AcDbText
 10
3116.3204
 20
957.9036
 30
0.0
 40
16.0421
  1
Top-plate shorter side
  7
Arial
100
AcDbText
  0
TEXT
  5
CE
330
18
100
AcDbEntity
  8
default
100
AcDbText
 10
3680.0
 20
471.8131
 30
0.0
 40
16.0421
  1
Distance of the mid-points of the armrest-screws.
  7
Arial
100
AcDbText
  0
CIRCLE
  5
CF
330
18
100
AcDbEntity
  8
default
100
AcDbCircle
 10
1050.0
 20
311.0
 30
0.0
 40
5.0
  0
CIRCLE
  5
D0
330
18
100
AcDbEntity
  8
default
100
AcDbCircle
 10
1050.0
 20
361.0
 30
0.0
 40
5.0
  0
CIRCLE
  5
D1
330
18
100
AcDbEntity
  8
default
100
AcDbCircle
 10
1050.0
 20
411.0
 30
0.0
 40
5.0
  0
CIRCLE
  5
D2
330
18
100
AcDbEntity
  8
default
100
AcDbCircle
 10
1050.0
 20
461.0
 30
0.0
 40
5.0
  0
CIRCLE
  5
D3
330
18
100
AcDbEntity
  8
default
100
AcDbCircle
 10
1050.0
 20
511.0
 30
0.0
 40
5.0
  0
CIRCLE
  5
D4
330
18
100
AcDbEntity
  8
default
100
AcDbCircle
 10
1050.0
 20
561.0
 30
0.0
 40
5.0
  0
CIRCLE
  5
D5
330
18
100
AcDbEntity
  8
default
100
AcDbCircle
 10
1050.0
 20
611.0
 30
0.0
 40
5.0
  0
CIRCLE
  5
D6
330
18
100
AcDbEntity
  8
default
100
AcDbCircle
 10
1050.0
 20
661.0
 30
0.0
 40
5.0
  0
CIRCLE
  5
D7
330
18
100
AcDbEntity
  8
default
100
AcDbCircle
 10
1050.0
 20
711.0
 30
0.0
 40
5.0
  0
LINE
  5
D8
330
18
100
AcDbEntity
  8
default
100
AcDbLine
 10
1045.2303
 20
712.5
 30
0.0
 11
1054.7697
 21
712.5
 31
0.0
  0
LINE
  5
D9
330
18
100
AcDbEntity
  8
default
100
AcDbLine
 10
1045.101
 20
710.0
 30
0.0
 11
1054.899
 21
710.0
 31
0.0
  0
LINE
  5
DA
330
18
100
AcDbEntity
  8
default
100
AcDbLine
 10
1047.0
 20
665.0
 30
0.0
 11
1053.0
 21
665.0
 31
0.0
  0
LINE
  5
DB
330
18
100
AcDbEntity
  8
default
100
AcDbLine
 10
1045.0
 20
661.0
 30
0.0
 11
1055.0
 21
661.0
 31
0.0
  0
SOLID
  5
DC
330
18
100
AcDbEntity
  8
default
100
AcDbTrace
 10
3508.5115
 20
585.0823
 30
0.0
 11
3508.5115
 21
592.9248
 31
0.0
 12
3532.0
 22
589.0036
 32
0.0
 13
3532.0
 23
589.0036
 33
0.0
  0
SOLID
  5
DD
330
18
100
AcDbEntity
  8
default
100
AcDbTrace
 10
3575.4885
 20
592.9248
 30
0.0
 11
3575.4885
 21
585.0823
 31
0.0
 12
3552.0
 22
589.0036
 32
0.0
 13
3552.0
 23
589.0036
 33
0.0
  0
LINE
  5
DE
330
18
100
AcDbEntity
  8
default
100
AcDbLine
 10
3552.0
 20
589.0036
 30
0.0
 11
3608.6828
 21
589.0036
 31
0.0
  0
LINE
  5
DF
330
18
100
AcDbEntity
  8
default
100
AcDbLine
 10
3484.375
 20
589.0036
 30
0.0
 11
3532.0
 21
589.0036
 31
0.0
  0
TEXT
  5
E0
330
18
100
AcDbEntity
  8
default
100
AcDbText
 10
3616.6203
 20
580.8166
 30
0.0
 40
16.0421
  1
20mm
  7
Arial
100
AcDbText
  0
SOLID
  5
E1
330
18
100
AcDbEntity
  8
default
100
AcDbTrace
 10
3423.4885
 20
629.3291
 30
0.0
 11
3423.4885
 21
621.4866
 31
0.0
 12
3400.0
 22
625.4079
 32
0.0
 13
3400.0
 23
625.4079
 33
0.0
  0
SOLID
  5
E2
330
18
100
AcDbEntity
  8
default
100
AcDbTrace
 10
3508.5115
 20
621.4866
 30
0.0
 11
3508.5115
 21
629.3291
 31
0.0
 12
3532.0
 22
625.4079
 32
0.0
 13
3532.0
 23
625.4079
 33
0.0
  0
LINE
  5
E3
330
18
100
AcDbEntity
  8
default
100
AcDbLine
 10
3400.0
 20
625.4079
 30
0.0
 11
3609.5722
 21
625.4079
 31
0.0
  0
TEXT
  5
E4
330
18
100
AcDbEntity
  8
default
100
AcDbText
 10
3617.5097
 20
617.2209
 30
0.0
 40
16.0421
  1
132mm
  7
Arial
100
AcDbText
  0
LINE
  5
E5
330
18
100
AcDbEntity
  8
default
100
AcDbLine
 10
3532.0
 20
288.9375
 30
0.0
 11
3532.0
 21
641.2829
 31
0.0
  0
LINE
  5
E6
330
18
100
AcDbEntity
  8
default
100
AcDbLine
 10
2660.0
 20
0.0
 30
0.0
 11
3640.0
 21
0.0
 31
0.0
  0
LINE
  5
E7
330
18
100
AcDbEntity
  8
default
100
AcDbLine
 10
2930.0
 20
0.5
 30
0.0
 11
2930.5
 21
0.0
 31
0.0
  0
LINE
  5
E8
330
18
100
AcDbEntity
  8
default
100
AcDbLine
 10
2930.5
 20
0.0
 30
0.0
 11
3009.5
 21
0.0
 31
0.0
  0
LINE
  5
E9
330
18
100
AcDbEntity
  8
default
100
AcDbLine
 10
3009.5
 20
0.0
 30
0.0
 11
3010.0
 21
0.5
 31
0.0
  0
LINE
  5
EA
330
18
100
AcDbEntity
  8
default
100
AcDbLine
 10
3290.0
 20
13.5
 30
0.0
 11
3290.5
 21
14.0
 31
0.0
  0
LINE
  5
EB
330
18
100
AcDbEntity
  8
default
100
AcDbLine
 10
3369.5
 20
14.0
 30
0.0
 11
3370.0
 21
13.5
 31
0.0
  0
LINE
  5
EC
330
18
100
AcDbEntity
  8
default
100
AcDbLine
 10
3290.0
 20
0.5
 30
0.0
 11
3290.0
 21
13.5
 31
0.0
  0
LINE
  5
ED
330
18
100
AcDbEntity
  8
default
100
AcDbLine
 10
3290.0
 20
0.5
 30
0.0
 11
3290.5
 21
0.0
 31
0.0
  0
LINE
  5
EE
330
18
100
AcDbEntity
  8
default
100
AcDbLine
 10
3370.0
 20
0.5
 30
0.0
 11
3370.0
 21
13.5
 31
0.0
  0
LINE
  5
EF
330
18
100
AcDbEntity
  8
default
100
AcDbLine
 10
3290.5
 20
0.0
 30
0.0
 11
3369.5
 21
0.0
 31
0.0
  0
LINE
  5
F0
330
18
100
AcDbEntity
  8
default
100
AcDbLine
 10
3369.5
 20
0.0
 30
0.0
 11
3370.0
 21
0.5
 31
0.0
  0
LINE
  5
F1
330
18
100
AcDbEntity
  8
default
100
AcDbLine
 10
3290.5
 20
14.0
 30
0.0
 11
3369.5
 21
14.0
 31
0.0
  0
LINE
  5
F2
330
18
100
AcDbEntity
  8
default
100
AcDbLine
 10
350.0
 20
0.5
 30
0.0
 11
350.5
 21
0.0
 31
0.0
  0
LINE
  5
F3
330
18
100
AcDbEntity
  8
default
100
AcDbLine
 10
429.5
 20
0.0
 30
0.0
 11
430.0
 21
0.5
 31
0.0
  0
LINE
  5
F4
330
18
100
AcDbEntity
  8
default
100
AcDbLine
 10
980.0
 20
81.0
 30
0.0
 11
1120.0
 21
81.0
 31
0.0
  0
ELLIPSE
  5
F5
330
18
100
AcDbEntity
  8
default
100
AcDbEllipse
 10
1020.7312
 20
17.5328
 30
0.0
 11
-0.4379000000000001
 21
2.633100000000001
 31
0.0
210
0.0
220
0.0
230
0.9999999999999998
 40
0.115236
 41
0.601741
 42
2.172537
  0
LINE
  5
F6
330
18
100
AcDbEntity
  8
default
100
AcDbLine
 10
1020.193
 20
19.6746
 30
0.0
 11
1020.193
 21
81.0
 31
0.0
  0
ELLIPSE
  5
F7
330
18
100
AcDbEntity
  8
default
100
AcDbEllipse
 10
1079.2688
 20
17.5328
 30
0.0
 11
0.4379000000000001
 21
2.633100000000001
 31
0.0
210
0.0
220
0.0
230
0.9999999999999998
 40
0.115236
 41
4.110275
 42
5.681071
  0
LINE
  5
F8
330
18
100
AcDbEntity
  8
default
100
AcDbLine
 10
1079.807
 20
19.6746
 30
0.0
 11
1079.807
 21
81.0
 31
0.0
  0
LINE
  5
F9
330
18
100
AcDbEntity
  8
default
100
AcDbLine
 10
1010.0
 20
13.5
 30
0.0
 11
1010.5
 21
14.0
 31
0.0
  0
LINE
  5
FA
330
18
100
AcDbEntity
  8
default
100
AcDbLine
 10
1089.5
 20
14.0
 30
0.0
 11
1090.0
 21
13.5
 31
0.0
  0
LINE
  5
FB
330
18
100
AcDbEntity
  8
default
100
AcDbLine
 10
1010.0
 20
0.5
 30
0.0
 11
1010.0
 21
13.5
 31
0.0
  0
LINE
  5
FC
330
18
100
AcDbEntity
  8
default
100
AcDbLine
 10
1010.0
 20
0.5
 30
0.0
 11
1010.5
 21
0.0
 31
0.0
  0
LINE
  5
FD
330
18
100
AcDbEntity
  8
default
100
AcDbLine
 10
1090.0
 20
0.5
 30
0.0
 11
1090.0
 21
13.5
 31
0.0
  0
LINE
  5
FE
330
18
100
AcDbEntity
  8
default
100
AcDbLine
 10
1089.5
 20
0.0
 30
0.0
 11
1090.0
 21
0.5
 31
0.0
  0
LINE
  5
FF
330
18
100
AcDbEntity
  8
default
100
AcDbLine
 10
1010.5
 20
14.0
 30
0.0
 11
1089.5
 21
14.0
 31
0.0
  0
ARC
  5
100
330
18
100
AcDbEntity
  8
default
100
AcDbCircle
 10
1077.5
 20
710.0
 30
0.0
 40
2.5
100
AcDbArc
 50
0.0
 51
180.0
  0
ARC
  5
101
330
18
100
AcDbEntity
  8
default
100
AcDbCircle
 10
1022.5
 20
710.0
 30
0.0
 40
2.5
100
AcDbArc
 50
0.0
 51
180.0
  0
ARC
  5
102
330
18
100
AcDbEntity
  8
default
100
AcDbCircle
 10
3302.5
 20
710.0
 30
0.0
 40
2.5
100
AcDbArc
 50
0.0
 51
180.0
  0
ARC
  5
103
330
18
100
AcDbEntity
  8
default
100
AcDbCircle
 10
3357.5
 20
710.0
 30
0.0
 40
2.5
100
AcDbArc
 50
0.0
 51
180.0
  0
ELLIPSE
  5
104
330
18
100
AcDbEntity
  8
default
100
AcDbEllipse
 10
3300.7312
 20
17.5328
 30
0.0
 11
-0.4379000000000001
 21
2.633100000000001
 31
0.0
210
0.0
220
0.0
230
0.9999999999999998
 40
0.115236
 41
0.601741
 42
2.172537
  0
ELLIPSE
  5
105
330
18
100
AcDbEntity
  8
default
100
AcDbEllipse
 10
3301.2607
 20
15.0771
 30
0.0
 11
-0.5412
 21
1.416
 31
0.0
210
0.0
220
0.0
230
0.9999999999999999
 40
0.15311
 41
0.803778
 42
2.374576
  0
ELLIPSE
  5
106
330
18
100
AcDbEntity
  8
default
100
AcDbEllipse
 10
1021.2607
 20
15.0771
 30
0.0
 11
-0.5412
 21
1.416
 31
0.0
210
0.0
220
0.0
230
0.9999999999999999
 40
0.15311
 41
0.803778
 42
2.374576
  0
ELLIPSE
  5
107
330
18
100
AcDbEntity
  8
default
100
AcDbEllipse
 10
1078.7393
 20
15.0771
 30
0.0
 11
0.5412
 21
1.416
 31
0.0
210
0.0
220
0.0
230
0.9999999999999999
 40
0.15311
 41
3.90819
 42
5.478988
  0
LINE
  5
108
330
18
100
AcDbEntity
  8
default
100
AcDbLine
 10
3397.5
 20
665.0
 30
0.0
 11
3397.5
 21
677.0
 31
0.0
  0
LINE
  5
109
330
18
100
AcDbEntity
  8
default
100
AcDbLine
 10
3262.5
 20
665.0
 30
0.0
 11
3262.5
 21
677.0
 31
0.0
  0
LINE
  5
10A
330
18
100
AcDbEntity
  8
default
100
AcDbLine
 10
1117.5
 20
665.0
 30
0.0
 11
1117.5
 21
677.0
 31
0.0
  0
LINE
  5
10B
330
18
100
AcDbEntity
  8
default
100
AcDbLine
 10
982.5
 20
665.0
 30
0.0
 11
982.5
 21
677.0
 31
0.0
  0
ELLIPSE
  5
10C
330
18
100
AcDbEntity
  8
default
100
AcDbEllipse
 10
3358.7393
 20
15.0771
 30
0.0
 11
0.5412
 21
1.416
 31
0.0
210
0.0
220
0.0
230
0.9999999999999999
 40
0.15311
 41
3.90819
 42
5.478987
  0
LINE
  5
10D
330
18
100
AcDbEntity
  8
default
100
AcDbLine
 10
90.0
 20
81.0
 30
0.0
 11
90.0
 21
661.0
 31
0.0
  0
LINE
  5
10E
330
18
100
AcDbEntity
  8
default
100
AcDbLine
 10
230.0
 20
81.0
 30
0.0
 11
230.0
 21
661.0
 31
0.0
  0
LINE
  5
10F
330
18
100
AcDbEntity
  8
default
100
AcDbLine
 10
140.0
 20
281.0
 30
0.0
 11
140.0
 21
861.0
 31
0.0
  0
LINE
  5
110
330
18
100
AcDbEntity
  8
default
100
AcDbLine
 10
180.0
 20
281.0
 30
0.0
 11
180.0
 21
861.0
 31
0.0
  0
LINE
  5
111
330
18
100
AcDbEntity
  8
default
100
AcDbLine
 10
140.0
 20
276.0
 30
0.0
 11
140.0
 21
281.0
 31
0.0
  0
LINE
  5
112
330
18
100
AcDbEntity
  8
default
100
AcDbLine
 10
180.0
 20
276.0
 30
0.0
 11
180.0
 21
281.0
 31
0.0
  0
LINE
  5
113
330
18
100
AcDbEntity
  8
default
100
AcDbLine
 10
140.0
 20
281.0
 30
0.0
 11
180.0
 21
281.0
 31
0.0
  0
LINE
  5
114
330
18
100
AcDbEntity
  8
default
100
AcDbLine
 10
140.0
 20
276.0
 30
0.0
 11
180.0
 21
276.0
 31
0.0
  0
LINE
  5
115
330
18
100
AcDbEntity
  8
default
100
AcDbLine
 10
90.0
 20
81.0
 30
0.0
 11
90.0
 21
661.0
 31
0.0
  0
LINE
  5
116
330
18
100
AcDbEntity
  8
default
100
AcDbLine
 10
230.0
 20
81.0
 30
0.0
 11
230.0
 21
661.0
 31
0.0
  0
LINE
  5
117
330
18
100
AcDbEntity
  8
default
100
AcDbLine
 10
94.0
 20
661.0
 30
0.0
 11
94.0
 21
665.0
 31
0.0
  0
LINE
  5
118
330
18
100
AcDbEntity
  8
default
100
AcDbLine
 10
226.0
 20
661.0
 30
0.0
 11
226.0
 21
665.0
 31
0.0
  0
LINE
  5
119
330
18
100
AcDbEntity
  8
default
100
AcDbLine
 10
140.0
 20
281.0
 30
0.0
 11
140.0
 21
861.0
 31
0.0
  0
LINE
  5
11A
330
18
100
AcDbEntity
  8
default
100
AcDbLine
 10
180.0
 20
281.0
 30
0.0
 11
180.0
 21
861.0
 31
0.0
  0
LINE
  5
11B
330
18
100
AcDbEntity
  8
default
100
AcDbLine
 10
140.0
 20
276.0
 30
0.0
 11
140.0
 21
281.0
 31
0.0
  0
LINE
  5
11C
330
18
100
AcDbEntity
  8
default
100
AcDbLine
 10
180.0
 20
276.0
 30
0.0
 11
180.0
 21
281.0
 31
0.0
  0
LINE
  5
11D
330
18
100
AcDbEntity
  8
default
100
AcDbLine
 10
140.0
 20
281.0
 30
0.0
 11
180.0
 21
281.0
 31
0.0
  0
LINE
  5
11E
330
18
100
AcDbEntity
  8
default
100
AcDbLine
 10
140.0
 20
276.0
 30
0.0
 11
180.0
 21
276.0
 31
0.0
  0
LINE
  5
11F
330
18
100
AcDbEntity
  8
default
100
AcDbLine
 10
180.0
 20
710.0
 30
0.0
 11
200.0
 21
710.0
 31
0.0
  0
LINE
  5
120
330
18
100
AcDbEntity
  8
default
100
AcDbLine
 10
120.0
 20
710.0
 30
0.0
 11
140.0
 21
710.0
 31
0.0
  0
LINE
  5
121
330
18
100
AcDbEntity
  8
default
100
AcDbLine
 10
180.0
 20
700.0
 30
0.0
 11
200.0
 21
700.0
 31
0.0
  0
LINE
  5
122
330
18
100
AcDbEntity
  8
default
100
AcDbLine
 10
200.0
 20
700.0
 30
0.0
 11
200.0
 21
710.0
 31
0.0
  0
LINE
  5
123
330
18
100
AcDbEntity
  8
default
100
AcDbLine
 10
120.0
 20
700.0
 30
0.0
 11
120.0
 21
710.0
 31
0.0
  0
LINE
  5
124
330
18
100
AcDbEntity
  8
default
100
AcDbLine
 10
120.0
 20
700.0
 30
0.0
 11
140.0
 21
700.0
 31
0.0
  0
LINE
  5
125
330
18
100
AcDbEntity
  8
default
100
AcDbLine
 10
180.0
 20
665.0
 30
0.0
 11
237.5
 21
665.0
 31
0.0
  0
LINE
  5
126
330
18
100
AcDbEntity
  8
default
100
AcDbLine
 10
82.5
 20
665.0
 30
0.0
 11
140.0
 21
665.0
 31
0.0
  0
LINE
  5
127
330
18
100
AcDbEntity
  8
default
100
AcDbLine
 10
180.0
 20
661.0
 30
0.0
 11
230.0
 21
661.0
 31
0.0
  0
LINE
  5
128
330
18
100
AcDbEntity
  8
default
100
AcDbLine
 10
90.0
 20
661.0
 30
0.0
 11
140.0
 21
661.0
 31
0.0
  0
LINE
  5
129
330
18
100
AcDbEntity
  8
default
100
AcDbLine
 10
180.0
 20
677.0
 30
0.0
 11
237.5
 21
677.0
 31
0.0
  0
LINE
  5
12A
330
18
100
AcDbEntity
  8
default
100
AcDbLine
 10
82.5
 20
677.0
 30
0.0
 11
140.0
 21
677.0
 31
0.0
  0
LINE
  5
12B
330
18
100
AcDbEntity
  8
default
100
AcDbLine
 10
235.0
 20
677.0
 30
0.0
 11
235.0
 21
690.0
 31
0.0
  0
LINE
  5
12C
330
18
100
AcDbEntity
  8
default
100
AcDbLine
 10
85.0
 20
677.0
 30
0.0
 11
85.0
 21
690.0
 31
0.0
  0
LINE
  5
12D
330
18
100
AcDbEntity
  8
default
100
AcDbLine
 10
180.0
 20
690.0
 30
0.0
 11
235.0
 21
690.0
 31
0.0
  0
LINE
  5
12E
330
18
100
AcDbEntity
  8
default
100
AcDbLine
 10
85.0
 20
690.0
 30
0.0
 11
140.0
 21
690.0
 31
0.0
  0
LINE
  5
12F
330
18
100
AcDbEntity
  8
default
100
AcDbLine
 10
237.5
 20
665.0
 30
0.0
 11
237.5
 21
677.0
 31
0.0
  0
LINE
  5
130
330
18
100
AcDbEntity
  8
default
100
AcDbLine
 10
82.5
 20
665.0
 30
0.0
 11
82.5
 21
677.0
 31
0.0
  0
CIRCLE
  5
131
330
18
100
AcDbEntity
  8
default
100
AcDbCircle
 10
160.0
 20
311.0
 30
0.0
 40
5.0
  0
CIRCLE
  5
132
330
18
100
AcDbEntity
  8
default
100
AcDbCircle
 10
160.0
 20
361.0
 30
0.0
 40
5.0
  0
CIRCLE
  5
133
330
18
100
AcDbEntity
  8
default
100
AcDbCircle
 10
160.0
 20
411.0
 30
0.0
 40
5.0
  0
CIRCLE
  5
134
330
18
100
AcDbEntity
  8
default
100
AcDbCircle
 10
160.0
 20
461.0
 30
0.0
 40
5.0
  0
CIRCLE
  5
135
330
18
100
AcDbEntity
  8
default
100
AcDbCircle
 10
160.0
 20
511.0
 30
0.0
 40
5.0
  0
CIRCLE
  5
136
330
18
100
AcDbEntity
  8
default
100
AcDbCircle
 10
160.0
 20
561.0
 30
0.0
 40
5.0
  0
CIRCLE
  5
137
330
18
100
AcDbEntity
  8
default
100
AcDbCircle
 10
160.0
 20
611.0
 30
0.0
 40
5.0
  0
CIRCLE
  5
138
330
18
100
AcDbEntity
  8
default
100
AcDbCircle
 10
160.0
 20
661.0
 30
0.0
 40
5.0
  0
CIRCLE
  5
139
330
18
100
AcDbEntity
  8
default
100
AcDbCircle
 10
160.0
 20
711.0
 30
0.0
 40
5.0
  0
LINE
  5
13A
330
18
100
AcDbEntity
  8
default
100
AcDbLine
 10
155.101
 20
710.0
 30
0.0
 11
164.899
 21
710.0
 31
0.0
  0
LINE
  5
13B
330
18
100
AcDbEntity
  8
default
100
AcDbLine
 10
157.0
 20
665.0
 30
0.0
 11
163.0
 21
665.0
 31
0.0
  0
LINE
  5
13C
330
18
100
AcDbEntity
  8
default
100
AcDbLine
 10
155.0
 20
661.0
 30
0.0
 11
165.0
 21
661.0
 31
0.0
  0
LINE
  5
13D
330
18
100
AcDbEntity
  8
default
100
AcDbLine
 10
90.0
 20
81.0
 30
0.0
 11
230.0
 21
81.0
 31
0.0
  0
ELLIPSE
  5
13E
330
18
100
AcDbEntity
  8
default
100
AcDbEllipse
 10
130.7312
 20
17.5328
 30
0.0
 11
-0.4379000000000001
 21
2.633100000000001
 31
0.0
210
0.0
220
0.0
230
0.9999999999999998
 40
0.115236
 41
0.601741
 42
2.172537
  0
ELLIPSE
  5
13F
330
18
100
AcDbEntity
  8
default
100
AcDbEllipse
 10
131.2607
 20
15.0771
 30
0.0
 11
-0.5412
 21
1.416
 31
0.0
210
0.0
220
0.0
230
0.9999999999999999
 40
0.15311
 41
0.803778
 42
2.374574
  0
LINE
  5
140
330
18
100
AcDbEntity
  8
default
100
AcDbLine
 10
130.193
 20
19.6746
 30
0.0
 11
130.193
 21
81.0
 31
0.0
  0
ELLIPSE
  5
141
330
18
100
AcDbEntity
  8
default
100
AcDbEllipse
 10
189.2688
 20
17.5328
 30
0.0
 11
0.4379000000000001
 21
2.633100000000001
 31
0.0
210
0.0
220
0.0
230
0.9999999999999998
 40
0.115236
 41
4.110275
 42
5.681071
  0
ELLIPSE
  5
142
330
18
100
AcDbEntity
  8
default
100
AcDbEllipse
 10
188.7393
 20
15.0771
 30
0.0
 11
0.5412
 21
1.416
 31
0.0
210
0.0
220
0.0
230
0.9999999999999999
 40
0.15311
 41
3.90819
 42
5.478987
  0
LINE
  5
143
330
18
100
AcDbEntity
  8
default
100
AcDbLine
 10
189.807
 20
19.6746
 30
0.0
 11
189.807
 21
81.0
 31
0.0
  0
LINE
  5
144
330
18
100
AcDbEntity
  8
default
100
AcDbLine
 10
120.0
 20
13.5
 30
0.0
 11
120.5
 21
14.0
 31
0.0
  0
LINE
  5
145
330
18
100
AcDbEntity
  8
default
100
AcDbLine
 10
199.5
 20
14.0
 30
0.0
 11
200.0
 21
13.5
 31
0.0
  0
LINE
  5
146
330
18
100
AcDbEntity
  8
default
100
AcDbLine
 10
120.0
 20
0.5
 30
0.0
 11
120.0
 21
13.5
 31
0.0
  0
LINE
  5
147
330
18
100
AcDbEntity
  8
default
100
AcDbLine
 10
200.0
 20
0.5
 30
0.0
 11
200.0
 21
13.5
 31
0.0
  0
LINE
  5
148
330
18
100
AcDbEntity
  8
default
100
AcDbLine
 10
120.5
 20
14.0
 30
0.0
 11
199.5
 21
14.0
 31
0.0
  0
ARC
  5
149
330
18
100
AcDbEntity
  8
default
100
AcDbCircle
 10
132.5
 20
710.0
 30
0.0
 40
2.5
100
AcDbArc
 50
0.0
 51
180.0
  0
ARC
  5
14A
330
18
100
AcDbEntity
  8
default
100
AcDbCircle
 10
187.5
 20
710.0
 30
0.0
 40
2.5
100
AcDbArc
 50
0.0
 51
180.0
  0
LINE
  5
14B
330
18
100
AcDbEntity
  8
default
100
AcDbLine
 10
92.5
 20
665.0
 30
0.0
 11
92.5
 21
677.0
 31
0.0
  0
LINE
  5
14C
330
18
100
AcDbEntity
  8
default
100
AcDbLine
 10
227.5
 20
665.0
 30
0.0
 11
227.5
 21
677.0
 31
0.0
  0
SOLID
  5
14D
330
18
100
AcDbEntity
  8
default
100
AcDbTrace
 10
230.0
 20
294.5249
 30
0.0
 11
253.4885
 21
298.4395
 31
0.0
 12
253.4885
 22
290.6102
 32
0.0
 13
253.4885
 23
290.6102
 33
0.0
  0
SOLID
  5
14E
330
18
100
AcDbEntity
  8
default
100
AcDbTrace
 10
980.0
 20
294.5249
 30
0.0
 11
956.5115
 21
290.6102
 31
0.0
 12
956.5115
 22
298.4395
 32
0.0
 13
956.5115
 23
298.4395
 33
0.0
  0
LINE
  5
14F
330
18
100
AcDbEntity
  8
default
100
AcDbLine
 10
230.0
 20
294.5249
 30
0.0
 11
742.975
 21
294.5249
 31
0.0
  0
LINE
  5
150
330
18
100
AcDbEntity
  8
default
100
AcDbLine
 10
831.5427
 20
294.5249
 30
0.0
 11
980.0
 21
294.5249
 31
0.0
  0
TEXT
  5
151
330
18
100
AcDbEntity
  8
default
100
AcDbText
 10
750.9125
 20
286.3379
 30
0.0
 40
16.0421
  1
750mm
  7
Arial
100
AcDbText
  0
LINE
  5
152
330
18
100
AcDbEntity
  8
default
100
AcDbLine
 10
230.0
 20
216.0
 30
0.0
 11
980.0
 21
216.0
 31
0.0
  0
LINE
  5
153
330
18
100
AcDbEntity
  8
default
100
AcDbLine
 10
230.0
 20
136.0
 30
0.0
 11
980.0
 21
136.0
 31
0.0
  0
LINE
  5
154
330
18
100
AcDbEntity
  8
default
100
AcDbLine
 10
230.0
 20
576.0
 30
0.0
 11
980.0
 21
576.0
 31
0.0
  0
LINE
  5
155
330
18
100
AcDbEntity
  8
default
100
AcDbLine
 10
230.0
 20
496.0
 30
0.0
 11
980.0
 21
496.0
 31
0.0
  0
LINE
  5
156
330
18
100
AcDbEntity
  8
default
100
AcDbLine
 10
155.2303
 20
712.5
 30
0.0
 11
164.7697
 21
712.5
 31
0.0
  0
LINE
  5
157
330
18
100
AcDbEntity
  8
default
100
AcDbLine
 10
156.4293
 20
714.5
 30
0.0
 11
163.5707
 21
714.5
 31
0.0
  0
LINE
  5
158
330
18
100
AcDbEntity
  8
default
100
AcDbLine
 10
180.0
 20
712.5
 30
0.0
 11
1030.0
 21
712.5
 31
0.0
  0
LINE
  5
159
330
18
100
AcDbEntity
  8
default
100
AcDbLine
 10
180.0
 20
714.5
 30
0.0
 11
1030.0
 21
714.5
 31
0.0
  0
LINE
  5
15A
330
18
100
AcDbEntity
  8
default
100
AcDbLine
 10
180.0
 20
814.5
 30
0.0
 11
1030.0
 21
814.5
 31
0.0
  0
LINE
  5
15B
330
18
100
AcDbEntity
  8
default
100
AcDbLine
 10
180.0
 20
819.5
 30
0.0
 11
1030.0
 21
819.5
 31
0.0
  0
LINE
  5
15C
330
18
100
AcDbEntity
  8
default
100
AcDbLine
 10
65.0
 20
712.5
 30
0.0
 11
65.0
 21
714.5
 31
0.0
  0
LINE
  5
15D
330
18
100
AcDbEntity
  8
default
100
AcDbLine
 10
60.0
 20
714.5
 30
0.0
 11
60.0
 21
814.5
 31
0.0
  0
LINE
  5
15E
330
18
100
AcDbEntity
  8
default
100
AcDbLine
 10
55.0
 20
814.5
 30
0.0
 11
140.0
 21
814.5
 31
0.0
  0
LINE
  5
15F
330
18
100
AcDbEntity
  8
default
100
AcDbLine
 10
60.0
 20
714.5
 30
0.0
 11
140.0
 21
714.5
 31
0.0
  0
LINE
  5
160
330
18
100
AcDbEntity
  8
default
100
AcDbLine
 10
65.0
 20
712.5
 30
0.0
 11
140.0
 21
712.5
 31
0.0
  0
LINE
  5
161
330
18
100
AcDbEntity
  8
default
100
AcDbLine
 10
55.0
 20
819.5
 30
0.0
 11
140.0
 21
819.5
 31
0.0
  0
LINE
  5
162
330
18
100
AcDbEntity
  8
default
100
AcDbLine
 10
55.0
 20
814.5
 30
0.0
 11
55.0
 21
819.5
 31
0.0
  0
LINE
  5
163
330
18
100
AcDbEntity
  8
default
100
AcDbLine
 10
1046.4293
 20
714.5
 30
0.0
 11
1053.5707
 21
714.5
 31
0.0
  0
LINE
  5
164
330
18
100
AcDbEntity
  8
default
100
AcDbLine
 10
1145.0
 20
712.5
 30
0.0
 11
1145.0
 21
714.5
 31
0.0
  0
LINE
  5
165
330
18
100
AcDbEntity
  8
default
100
AcDbLine
 10
1150.0
 20
714.5
 30
0.0
 11
1150.0
 21
814.5
 31
0.0
  0
LINE
  5
166
330
18
100
AcDbEntity
  8
default
100
AcDbLine
 10
1070.0
 20
814.5
 30
0.0
 11
1155.0
 21
814.5
 31
0.0
  0
LINE
  5
167
330
18
100
AcDbEntity
  8
default
100
AcDbLine
 10
1070.0
 20
714.5
 30
0.0
 11
1150.0
 21
714.5
 31
0.0
  0
LINE
  5
168
330
18
100
AcDbEntity
  8
default
100
AcDbLine
 10
1070.0
 20
712.5
 30
0.0
 11
1145.0
 21
712.5
 31
0.0
  0
LINE
  5
169
330
18
100
AcDbEntity
  8
default
100
AcDbLine
 10
1070.0
 20
819.5
 30
0.0
 11
1155.0
 21
819.5
 31
0.0
  0
LINE
  5
16A
330
18
100
AcDbEntity
  8
default
100
AcDbLine
 10
1155.0
 20
814.5
 30
0.0
 11
1155.0
 21
819.5
 31
0.0
  0
LINE
  5
16B
330
18
100
AcDbEntity
  8
default
100
AcDbLine
 10
55.0
 20
861.0
 30
0.0
 11
1155.0
 21
861.0
 31
0.0
  0
LINE
  5
16C
330
18
100
AcDbEntity
  8
default
100
AcDbLine
 10
0.0
 20
0.0
 30
0.0
 11
720.0
 21
0.0
 31
0.0
  0
SOLID
  5
16D
330
18
100
AcDbEntity
  8
default
100
AcDbTrace
 10
90.0
 20
-90.1867
 30
0.0
 11
113.4885
 21
-86.2721
 31
0.0
 12
113.4885
 22
-94.1014
 32
0.0
 13
113.4885
 23
-94.1014
 33
0.0
  0
SOLID
  5
16E
330
18
100
AcDbEntity
  8
default
100
AcDbTrace
 10
1120.0
 20
-90.1867
 30
0.0
 11
1096.5115
 21
-94.1014
 31
0.0
 12
1096.5115
 22
-86.2721
 32
0.0
 13
1096.5115
 23
-86.2721
 33
0.0
  0
LINE
  5
16F
330
18
100
AcDbEntity
  8
default
100
AcDbLine
 10
90.0
 20
-90.1867
 30
0.0
 11
1193.0749
 21
-90.1867
 31
0.0
  0
TEXT
  5
170
330
18
100
AcDbEntity
  8
default
100
AcDbText
 10
1201.0124
 20
-98.3737
 30
0.0
 40
16.0421
  1
1030mm
  7
Arial
100
AcDbText
  0
LINE
  5
171
330
18
100
AcDbEntity
  8
default
100
AcDbLine
 10
1120.0
 20
-106.0617
 30
0.0
 11
1120.0
 21
73.0625
 31
0.0
  0
LINE
  5
172
330
18
100
AcDbEntity
  8
default
100
AcDbLine
 10
90.0
 20
-106.0617
 30
0.0
 11
90.0
 21
73.0625
 31
0.0
  0
TEXT
  5
173
330
18
100
AcDbEntity
  8
default
100
AcDbText
 10
739.1032
 20
58.5553
 30
0.0
 40
16.0421
  1
~136mm
  7
Arial
100
AcDbText
  0
LINE
  5
174
330
18
100
AcDbEntity
  8
default
100
AcDbLine
 10
1156.2476
 20
753.8368
 30
0.0
 11
1196.2342
 21
703.8929
 31
0.0
  0
SOLID
  5
175
330
18
100
AcDbEntity
  8
default
100
AcDbTrace
 10
1173.9787
 20
737.9517
 30
0.0
 11
1167.8769
 21
733.0502
 31
0.0
 12
1156.2476
 22
753.8368
 32
0.0
 13
1156.2476
 23
753.8368
 33
0.0
  0
LINE
  5
176
330
18
100
AcDbEntity
  8
default
100
AcDbLine
 10
1196.2342
 20
703.8929
 30
0.0
 11
1236.2091
 21
703.8929
 31
0.0
  0
TEXT
  5
177
330
18
100
AcDbEntity
  8
default
100
AcDbText
 10
1244.1466
 20
695.706
 30
0.0
 40
16.0421
  1
Top-plate (thickness 107mm)
  7
Arial
100
AcDbText
  0
LINE
  5
178
330
18
100
AcDbEntity
  8
default
100
AcDbLine
 10
2720.0
 20
81.0
 30
0.0
 11
2720.0
 21
661.0
 31
0.0
  0
LINE
  5
179
330
18
100
AcDbEntity
  8
default
100
AcDbLine
 10
2860.0
 20
81.0
 30
0.0
 11
2860.0
 21
661.0
 31
0.0
  0
LINE
  5
17A
330
18
100
AcDbEntity
  8
default
100
AcDbLine
 10
2720.0
 20
81.0
 30
0.0
 11
2860.0
 21
81.0
 31
0.0
  0
ELLIPSE
  5
17B
330
18
100
AcDbEntity
  8
default
100
AcDbEllipse
 10
2760.7312
 20
17.5328
 30
0.0
 11
-0.4379000000000001
 21
2.633100000000001
 31
0.0
210
0.0
220
0.0
230
0.9999999999999998
 40
0.115236
 41
0.601741
 42
2.172537
  0
LINE
  5
17C
330
18
100
AcDbEntity
  8
default
100
AcDbLine
 10
2760.193
 20
19.6746
 30
0.0
 11
2760.193
 21
81.0
 31
0.0
  0
ELLIPSE
  5
17D
330
18
100
AcDbEntity
  8
default
100
AcDbEllipse
 10
2819.2688
 20
17.5328
 30
0.0
 11
0.4379000000000001
 21
2.633100000000001
 31
0.0
210
0.0
220
0.0
230
0.9999999999999998
 40
0.115236
 41
4.110275
 42
5.681071
  0
LINE
  5
17E
330
18
100
AcDbEntity
  8
default
100
AcDbLine
 10
2819.807
 20
19.6746
 30
0.0
 11
2819.807
 21
81.0
 31
0.0
  0
LINE
  5
17F
330
18
100
AcDbEntity
  8
default
100
AcDbLine
 10
2720.0
 20
81.0
 30
0.0
 11
2720.0
 21
661.0
 31
0.0
  0
LINE
  5
180
330
18
100
AcDbEntity
  8
default
100
AcDbLine
 10
2860.0
 20
81.0
 30
0.0
 11
2860.0
 21
661.0
 31
0.0
  0
LINE
  5
181
330
18
100
AcDbEntity
  8
default
100
AcDbLine
 10
2724.0
 20
661.0
 30
0.0
 11
2724.0
 21
665.0
 31
0.0
  0
LINE
  5
182
330
18
100
AcDbEntity
  8
default
100
AcDbLine
 10
2856.0
 20
661.0
 30
0.0
 11
2856.0
 21
665.0
 31
0.0
  0
LINE
  5
183
330
18
100
AcDbEntity
  8
default
100
AcDbLine
 10
2830.0
 20
700.0
 30
0.0
 11
2830.0
 21
710.0
 31
0.0
  0
LINE
  5
184
330
18
100
AcDbEntity
  8
default
100
AcDbLine
 10
2750.0
 20
700.0
 30
0.0
 11
2750.0
 21
710.0
 31
0.0
  0
LINE
  5
185
330
18
100
AcDbEntity
  8
default
100
AcDbLine
 10
2865.0
 20
677.0
 30
0.0
 11
2865.0
 21
690.0
 31
0.0
  0
LINE
  5
186
330
18
100
AcDbEntity
  8
default
100
AcDbLine
 10
2715.0
 20
677.0
 30
0.0
 11
2715.0
 21
690.0
 31
0.0
  0
LINE
  5
187
330
18
100
AcDbEntity
  8
default
100
AcDbLine
 10
2867.5
 20
665.0
 30
0.0
 11
2867.5
 21
677.0
 31
0.0
  0
LINE
  5
188
330
18
100
AcDbEntity
  8
default
100
AcDbLine
 10
2712.5
 20
665.0
 30
0.0
 11
2712.5
 21
677.0
 31
0.0
  0
LINE
  5
189
330
18
100
AcDbEntity
  8
default
100
AcDbLine
 10
2712.5
 20
665.0
 30
0.0
 11
2867.5
 21
665.0
 31
0.0
  0
LINE
  5
18A
330
18
100
AcDbEntity
  8
default
100
AcDbLine
 10
2720.0
 20
661.0
 30
0.0
 11
2860.0
 21
661.0
 31
0.0
  0
LINE
  5
18B
330
18
100
AcDbEntity
  8
default
100
AcDbLine
 10
2712.5
 20
677.0
 30
0.0
 11
2867.5
 21
677.0
 31
0.0
  0
LINE
  5
18C
330
18
100
AcDbEntity
  8
default
100
AcDbLine
 10
2715.0
 20
690.0
 30
0.0
 11
2865.0
 21
690.0
 31
0.0
  0
LINE
  5
18D
330
18
100
AcDbEntity
  8
default
100
AcDbLine
 10
2750.0
 20
710.0
 30
0.0
 11
2830.0
 21
710.0
 31
0.0
  0
LINE
  5
18E
330
18
100
AcDbEntity
  8
default
100
AcDbLine
 10
2750.0
 20
700.0
 30
0.0
 11
2830.0
 21
700.0
 31
0.0
  0
LINE
  5
18F
330
18
100
AcDbEntity
  8
default
100
AcDbLine
 10
2784.0
 20
690.0
 30
0.0
 11
2784.0
 21
700.0
 31
0.0
  0
LINE
  5
190
330
18
100
AcDbEntity
  8
default
100
AcDbLine
 10
2796.0
 20
690.0
 30
0.0
 11
2796.0
 21
700.0
 31
0.0
  0
TEXT
  5
191
330
18
100
AcDbEntity
  8
default
100
AcDbText
 10
2878.2325
 20
332.3527
 30
0.0
 40
16.0421
  1
280mm
  7
Arial
100
AcDbText
  0
SOLID
  5
192
330
18
100
AcDbEntity
  8
default
100
AcDbTrace
 10
2907.0061
 20
637.5115
 30
0.0
 11
2899.1896
 21
637.5115
 31
0.0
 12
2903.0979
 22
661.0
 32
0.0
 13
2903.0979
 23
661.0
 33
0.0
  0
SOLID
  5
193
330
18
100
AcDbEntity
  8
default
100
AcDbTrace
 10
2899.1896
 20
599.4885
 30
0.0
 11
2907.0061
 21
599.4885
 31
0.0
 12
2903.0979
 22
576.0
 32
0.0
 13
2903.0979
 23
576.0
 33
0.0
  0
LINE
  5
194
330
18
100
AcDbEntity
  8
default
100
AcDbLine
 10
2903.0979
 20
635.5291
 30
0.0
 11
2903.0979
 21
661.0
 31
0.0
  0
LINE
  5
195
330
18
100
AcDbEntity
  8
default
100
AcDbLine
 10
2903.0979
 20
576.0
 30
0.0
 11
2903.0979
 21
598.4874
 31
0.0
  0
TEXT
  5
196
330
18
100
AcDbEntity
  8
default
100
AcDbText
 10
2872.9415
 20
608.8213
 30
0.0
 40
16.0421
  1
85mm
  7
Arial
100
AcDbText
  0
LINE
  5
197
330
18
100
AcDbEntity
  8
default
100
AcDbLine
 10
2867.9375
 20
661.0
 30
0.0
 11
2918.9729
 21
661.0
 31
0.0
  0
LINE
  5
198
330
18
100
AcDbEntity
  8
default
100
AcDbLine
 10
2867.9375
 20
576.0
 30
0.0
 11
2918.9729
 21
576.0
 31
0.0
  0
LINE
  5
199
330
18
100
AcDbEntity
  8
default
100
AcDbLine
 10
2750.0
 20
13.5
 30
0.0
 11
2750.5
 21
14.0
 31
0.0
  0
LINE
  5
19A
330
18
100
AcDbEntity
  8
default
100
AcDbLine
 10
2829.5
 20
14.0
 30
0.0
 11
2830.0
 21
13.5
 31
0.0
  0
LINE
  5
19B
330
18
100
AcDbEntity
  8
default
100
AcDbLine
 10
2750.0
 20
0.5
 30
0.0
 11
2750.0
 21
13.5
 31
0.0
  0
LINE
  5
19C
330
18
100
AcDbEntity
  8
default
100
AcDbLine
 10
2830.0
 20
0.5
 30
0.0
 11
2830.0
 21
13.5
 31
0.0
  0
LINE
  5
19D
330
18
100
AcDbEntity
  8
default
100
AcDbLine
 10
2750.5
 20
14.0
 30
0.0
 11
2829.5
 21
14.0
 31
0.0
  0
ARC
  5
19E
330
18
100
AcDbEntity
  8
default
100
AcDbCircle
 10
2817.5
 20
710.0
 30
0.0
 40
2.5
100
AcDbArc
 50
0.0
 51
180.0
  0
ARC
  5
19F
330
18
100
AcDbEntity
  8
default
100
AcDbCircle
 10
2762.5
 20
710.0
 30
0.0
 40
2.5
100
AcDbArc
 50
0.0
 51
180.0
  0
ELLIPSE
  5
1A0
330
18
100
AcDbEntity
  8
default
100
AcDbEllipse
 10
2761.2607
 20
15.0771
 30
0.0
 11
-0.5412
 21
1.416
 31
0.0
210
0.0
220
0.0
230
0.9999999999999999
 40
0.15311
 41
0.803778
 42
2.374576
  0
ELLIPSE
  5
1A1
330
18
100
AcDbEntity
  8
default
100
AcDbEllipse
 10
2818.7393
 20
15.0771
 30
0.0
 11
0.5412
 21
1.416
 31
0.0
210
0.0
220
0.0
230
0.9999999999999999
 40
0.15311
 41
3.90819
 42
5.478988
  0
LINE
  5
1A2
330
18
100
AcDbEntity
  8
default
100
AcDbLine
 10
2722.5
 20
665.0
 30
0.0
 11
2722.5
 21
677.0
 31
0.0
  0
LINE
  5
1A3
330
18
100
AcDbEntity
  8
default
100
AcDbLine
 10
2857.5
 20
665.0
 30
0.0
 11
2857.5
 21
677.0
 31
0.0
  0
SOLID
  5
1A4
330
18
100
AcDbEntity
  8
default
100
AcDbTrace
 10
2918.6963
 20
472.5115
 30
0.0
 11
2910.8798
 21
472.5115
 31
0.0
 12
2914.788
 22
496.0
 32
0.0
 13
2914.788
 23
496.0
 33
0.0
  0
SOLID
  5
1A5
330
18
100
AcDbEntity
  8
default
100
AcDbTrace
 10
2910.8798
 20
239.4885
 30
0.0
 11
2918.6963
 21
239.4885
 31
0.0
 12
2914.788
 22
216.0
 32
0.0
 13
2914.788
 23
216.0
 33
0.0
  0
LINE
  5
1A6
330
18
100
AcDbEntity
  8
default
100
AcDbLine
 10
2914.788
 20
359.0605
 30
0.0
 11
2914.788
 21
496.0
 31
0.0
  0
LINE
  5
1A7
330
18
100
AcDbEntity
  8
default
100
AcDbLine
 10
2914.788
 20
216.0
 30
0.0
 11
2914.788
 21
322.0188
 31
0.0
  0
SOLID
  5
1A8
330
18
100
AcDbEntity
  8
default
100
AcDbTrace
 10
2860.0
 20
285.2965
 30
0.0
 11
2883.4885
 21
289.2111
 31
0.0
 12
2883.4885
 22
281.3818
 32
0.0
 13
2883.4885
 23
281.3818
 33
0.0
  0
SOLID
  5
1A9
330
18
100
AcDbEntity
  8
default
100
AcDbTrace
 10
3260.0
 20
285.2965
 30
0.0
 11
3236.5115
 21
281.3818
 31
0.0
 12
3236.5115
 22
289.2111
 32
0.0
 13
3236.5115
 23
289.2111
 33
0.0
  0
LINE
  5
1AA
330
18
100
AcDbEntity
  8
default
100
AcDbLine
 10
2860.0
 20
285.2965
 30
0.0
 11
3032.5191
 21
285.2965
 31
0.0
  0
LINE
  5
1AB
330
18
100
AcDbEntity
  8
default
100
AcDbLine
 10
3121.8744
 20
285.2965
 30
0.0
 11
3260.0
 21
285.2965
 31
0.0
  0
TEXT
  5
1AC
330
18
100
AcDbEntity
  8
default
100
AcDbText
 10
3040.4566
 20
277.1095
 30
0.0
 40
16.0421
  1
400mm
  7
Arial
100
AcDbText
  0
LINE
  5
1AD
330
18
100
AcDbEntity
  8
default
100
AcDbLine
 10
2860.0
 20
576.0
 30
0.0
 11
3260.0
 21
576.0
 31
0.0
  0
LINE
  5
1AE
330
18
100
AcDbEntity
  8
default
100
AcDbLine
 10
2860.0
 20
496.0
 30
0.0
 11
3260.0
 21
496.0
 31
0.0
  0
LINE
  5
1AF
330
18
100
AcDbEntity
  8
default
100
AcDbLine
 10
2860.0
 20
216.0
 30
0.0
 11
3260.0
 21
216.0
 31
0.0
  0
LINE
  5
1B0
330
18
100
AcDbEntity
  8
default
100
AcDbLine
 10
2860.0
 20
136.0
 30
0.0
 11
3260.0
 21
136.0
 31
0.0
  0
LINE
  5
1B1
330
18
100
AcDbEntity
  8
default
100
AcDbLine
 10
2670.0
 20
712.5
 30
0.0
 11
2670.0
 21
714.5
 31
0.0
  0
LINE
  5
1B2
330
18
100
AcDbEntity
  8
default
100
AcDbLine
 10
2665.0
 20
714.5
 30
0.0
 11
2665.0
 21
814.5
 31
0.0
  0
LINE
  5
1B3
330
18
100
AcDbEntity
  8
default
100
AcDbLine
 10
2660.0
 20
814.5
 30
0.0
 11
2660.0
 21
819.5
 31
0.0
  0
LINE
  5
1B4
330
18
100
AcDbEntity
  8
default
100
AcDbLine
 10
3450.0
 20
712.5
 30
0.0
 11
3450.0
 21
714.5
 31
0.0
  0
LINE
  5
1B5
330
18
100
AcDbEntity
  8
default
100
AcDbLine
 10
3455.0
 20
714.5
 30
0.0
 11
3455.0
 21
814.5
 31
0.0
  0
LINE
  5
1B6
330
18
100
AcDbEntity
  8
default
100
AcDbLine
 10
3460.0
 20
814.5
 30
0.0
 11
3460.0
 21
819.5
 31
0.0
  0
LINE
  5
1B7
330
18
100
AcDbEntity
  8
default
100
AcDbLine
 10
2660.0
 20
819.5
 30
0.0
 11
3460.0
 21
819.5
 31
0.0
  0
LINE
  5
1B8
330
18
100
AcDbEntity
  8
default
100
AcDbLine
 10
2660.0
 20
814.5
 30
0.0
 11
3460.0
 21
814.5
 31
0.0
  0
LINE
  5
1B9
330
18
100
AcDbEntity
  8
default
100
AcDbLine
 10
2665.0
 20
714.5
 30
0.0
 11
3455.0
 21
714.5
 31
0.0
  0
LINE
  5
1BA
330
18
100
AcDbEntity
  8
default
100
AcDbLine
 10
2670.0
 20
712.5
 30
0.0
 11
3450.0
 21
712.5
 31
0.0
  0
SOLID
  5
1BB
330
18
100
AcDbEntity
  8
default
100
AcDbTrace
 10
2660.0
 20
926.7713
 30
0.0
 11
2683.4885
 21
930.686
 31
0.0
 12
2683.4885
 22
922.8567
 32
0.0
 13
2683.4885
 23
922.8567
 33
0.0
  0
SOLID
  5
1BC
330
18
100
AcDbEntity
  8
default
100
AcDbTrace
 10
3460.0
 20
926.7713
 30
0.0
 11
3436.5115
 21
922.8567
 31
0.0
 12
3436.5115
 22
930.686
 32
0.0
 13
3436.5115
 23
930.686
 33
0.0
  0
LINE
  5
1BD
330
18
100
AcDbEntity
  8
default
100
AcDbLine
 10
2660.0
 20
926.7713
 30
0.0
 11
3015.8678
 21
926.7713
 31
0.0
  0
LINE
  5
1BE
330
18
100
AcDbEntity
  8
default
100
AcDbLine
 10
3104.5955
 20
926.7713
 30
0.0
 11
3460.0
 21
926.7713
 31
0.0
  0
TEXT
  5
1BF
330
18
100
AcDbEntity
  8
default
100
AcDbText
 10
3023.8053
 20
918.5844
 30
0.0
 40
16.0421
  1
800mm
  7
Arial
100
AcDbText
  0
LINE
  5
1C0
330
18
100
AcDbEntity
  8
default
100
AcDbLine
 10
3460.0
 20
827.4375
 30
0.0
 11
3460.0
 21
942.6463
 31
0.0
  0
LINE
  5
1C1
330
18
100
AcDbEntity
  8
default
100
AcDbLine
 10
2660.0
 20
827.4375
 30
0.0
 11
2660.0
 21
942.6463
 31
0.0
  0
SOLID
  5
1C2
330
18
100
AcDbEntity
  8
default
100
AcDbTrace
 10
3080.6548
 20
689.0115
 30
0.0
 11
3072.8383
 21
689.0115
 31
0.0
 12
3076.7465
 22
712.5
 32
0.0
 13
3076.7465
 23
712.5
 33
0.0
  0
SOLID
  5
1C3
330
18
100
AcDbEntity
  8
default
100
AcDbTrace
 10
3072.8383
 20
599.4885
 30
0.0
 11
3080.6548
 21
599.4885
 31
0.0
 12
3076.7465
 22
576.0
 32
0.0
 13
3076.7465
 23
576.0
 33
0.0
  0
LINE
  5
1C4
330
18
100
AcDbEntity
  8
default
100
AcDbLine
 10
3076.7465
 20
664.9452
 30
0.0
 11
3076.7465
 21
712.5
 31
0.0
  0
LINE
  5
1C5
330
18
100
AcDbEntity
  8
default
100
AcDbLine
 10
3076.7465
 20
576.0
 30
0.0
 11
3076.7465
 21
627.9035
 31
0.0
  0
TEXT
  5
1C6
330
18
100
AcDbEntity
  8
default
100
AcDbText
 10
3031.6874
 20
638.2374
 30
0.0
 40
16.0421
  1
~136.5mm
  7
Arial
100
AcDbText
  0
ARC
  5
1C7
330
18
100
AcDbEntity
  8
default
100
AcDbCircle
 10
1152.0
 20
1537.5
 30
0.0
 40
3.0
100
AcDbArc
 50
270.0
 51
0.0
  0
ARC
  5
1C8
330
18
100
AcDbEntity
  8
default
100
AcDbCircle
 10
58.0
 20
1537.5
 30
0.0
 40
3.0
100
AcDbArc
 50
180.0
 51
270.0
  0
LINE
  5
1C9
330
18
100
AcDbEntity
  8
default
100
AcDbLine
 10
58.0
 20
1534.5
 30
0.0
 11
1152.0
 21
1534.5
 31
0.0
  0
LINE
  5
1CA
330
18
100
AcDbEntity
  8
default
100
AcDbLine
 10
58.0
 20
2334.5
 30
0.0
 11
1152.0
 21
2334.5
 31
0.0
  0
ARC
  5
1CB
330
18
100
AcDbEntity
  8
default
100
AcDbCircle
 10
58.0
 20
2331.5
 30
0.0
 40
3.0
100
AcDbArc
 50
90.0
 51
180.0
  0
ARC
  5
1CC
330
18
100
AcDbEntity
  8
default
100
AcDbCircle
 10
1152.0
 20
2331.5
 30
0.0
 40
3.0
100
AcDbArc
 50
0.0
 51
90.0
  0
LINE
  5
1CD
330
18
100
AcDbEntity
  8
default
100
AcDbLine
 10
1155.0
 20
1537.5
 30
0.0
 11
1155.0
 21
2331.5
 31
0.0
  0
LINE
  5
1CE
330
18
100
AcDbEntity
  8
default
100
AcDbLine
 10
55.0
 20
1537.5
 30
0.0
 11
55.0
 21
2331.5
 31
0.0
  0
SOLID
  5
1CF
330
18
100
AcDbEntity
  8
default
100
AcDbTrace
 10
55.0
 20
2383.6465
 30
0.0
 11
78.4885
 21
2387.5612
 31
0.0
 12
78.4885
 22
2379.7319
 32
0.0
 13
78.4885
 23
2379.7319
 33
0.0
  0
SOLID
  5
1D0
330
18
100
AcDbEntity
  8
default
100
AcDbTrace
 10
1155.0
 20
2383.6465
 30
0.0
 11
1131.5115
 21
2379.7319
 31
0.0
 12
1131.5115
 22
2387.5612
 32
0.0
 13
1131.5115
 23
2387.5612
 33
0.0
  0
LINE
  5
1D1
330
18
100
AcDbEntity
  8
default
100
AcDbLine
 10
55.0
 20
2383.6465
 30
0.0
 11
644.6622
 21
2383.6465
 31
0.0
  0
LINE
  5
1D2
330
18
100
AcDbEntity
  8
default
100
AcDbLine
 10
744.3917
 20
2383.6465
 30
0.0
 11
1155.0
 21
2383.6465
 31
0.0
  0
TEXT
  5
1D3
330
18
100
AcDbEntity
  8
default
100
AcDbText
 10
652.5997
 20
2375.4596
 30
0.0
 40
16.0421
  1
1100mm
  7
Arial
100
AcDbText
  0
LINE
  5
1D4
330
18
100
AcDbEntity
  8
default
100
AcDbLine
 10
55.0
 20
2339.4375
 30
0.0
 11
55.0
 21
2399.5215
 31
0.0
  0
LINE
  5
1D5
330
18
100
AcDbEntity
  8
default
100
AcDbLine
 10
1155.0
 20
2339.4375
 30
0.0
 11
1155.0
 21
2399.5215
 31
0.0
  0
TEXT
  5
1D6
330
18
100
AcDbEntity
  8
default
100
AcDbText
 10
512.7432
 20
1359.0566
 30
0.0
 40
16.0421
  1
Top-plate and armrest length are the same.
  7
Arial
100
AcDbText
  0
TEXT
  5
1D7
330
18
100
AcDbEntity
  8
default
100
AcDbText
 10
1293.456
 20
1866.4982
 30
0.0
 40
16.0421
  1
The shorter side of the top-plate.
  7
Arial
100
AcDbText
  0
SOLID
  5
1D8
330
18
100
AcDbEntity
  8
default
100
AcDbTrace
 10
1229.21
 20
2334.5
 30
0.0
 11
1233.1249
 21
2311.0115
 31
0.0
 12
1225.2951
 22
2311.0115
 32
0.0
 13
1225.2951
 23
2311.0115
 33
0.0
  0
SOLID
  5
1D9
330
18
100
AcDbEntity
  8
default
100
AcDbTrace
 10
1229.21
 20
1534.5
 30
0.0
 11
1225.2951
 21
1557.9885
 31
0.0
 12
1233.1249
 22
1557.9885
 32
0.0
 13
1233.1249
 23
1557.9885
 33
0.0
  0
LINE
  5
1DA
330
18
100
AcDbEntity
  8
default
100
AcDbLine
 10
1229.21
 20
1891.0477
 30
0.0
 11
1229.21
 21
2334.5
 31
0.0
  0
LINE
  5
1DB
330
18
100
AcDbEntity
  8
default
100
AcDbLine
 10
1229.21
 20
1534.5
 30
0.0
 11
1229.21
 21
1854.006
 31
0.0
  0
LINE
  5
1DC
330
18
100
AcDbEntity
  8
default
100
AcDbLine
 10
1159.9375
 20
2334.5
 30
0.0
 11
1245.085
 21
2334.5
 31
0.0
  0
LINE
  5
1DD
330
18
100
AcDbEntity
  8
default
100
AcDbLine
 10
1159.9375
 20
1534.5
 30
0.0
 11
1245.085
 21
1534.5
 31
0.0
  0
SOLID
  5
1DE
330
18
100
AcDbEntity
  8
default
100
AcDbTrace
 10
1616.3067
 20
796.0115
 30
0.0
 11
1608.4734
 21
796.0115
 31
0.0
 12
1612.39
 22
819.5
 32
0.0
 13
1612.39
 23
819.5
 33
0.0
  0
SOLID
  5
1DF
330
18
100
AcDbEntity
  8
default
100
AcDbTrace
 10
1608.4734
 20
23.4885
 30
0.0
 11
1616.3067
 21
23.4885
 31
0.0
 12
1612.39
 22
0.0
 32
0.0
 13
1612.39
 23
0.0
 33
0.0
  0
LINE
  5
1E0
330
18
100
AcDbEntity
  8
default
100
AcDbLine
 10
1612.39
 20
407.423
 30
0.0
 11
1612.39
 21
819.5
 31
0.0
  0
LINE
  5
1E1
330
18
100
AcDbEntity
  8
default
100
AcDbLine
 10
1612.39
 20
0.0
 30
0.0
 11
1612.39
 21
370.3813
 31
0.0
  0
TEXT
  5
1E2
330
18
100
AcDbEntity
  8
default
100
AcDbText
 10
1569.3983
 20
380.7152
 30
0.0
 40
16.0421
  1
~820mm
  7
Arial
100
AcDbText
  0
LINE
  5
1E3
330
18
100
AcDbEntity
  8
default
100
AcDbLine
 10
1217.9375
 20
0.0
 30
0.0
 11
1628.265
 21
0.0
 31
0.0
  0
LINE
  5
1E4
330
18
100
AcDbEntity
  8
default
100
AcDbLine
 10
1162.9375
 20
819.5
 30
0.0
 11
1628.265
 21
819.5
 31
0.0
  0
TEXT
  5
1E5
330
18
100
AcDbEntity
  8
default
100
AcDbText
 10
1165.3152
 20
527.2654
 30
0.0
 40
16.0421
  1
40mm (leg of the armrest)
  7
Arial
100
AcDbText
  0
LINE
  5
1E6
330
18
100
AcDbEntity
  8
default
100
AcDbLine
 10
3516.0
 20
861.0
 30
0.0
 11
3568.0
 21
861.0
 31
0.0
  0
LINE
  5
1E7
330
18
100
AcDbEntity
  8
default
100
AcDbLine
 10
3516.0
 20
861.0
 30
0.0
 11
3516.0
 21
901.0
 31
0.0
  0
ARC
  5
1E8
330
18
100
AcDbEntity
  8
default
100
AcDbCircle
 10
3521.0
 20
901.0
 30
0.0
 40
5.0
100
AcDbArc
 50
90.0
 51
180.0
  0
LINE
  5
1E9
330
18
100
AcDbEntity
  8
default
100
AcDbLine
 10
3521.0
 20
906.0
 30
0.0
 11
3563.0
 21
906.0
 31
0.0
  0
LINE
  5
1EA
330
18
100
AcDbEntity
  8
default
100
AcDbLine
 10
3568.0
 20
861.0
 30
0.0
 11
3568.0
 21
901.0
 31
0.0
  0
ARC
  5
1EB
330
18
100
AcDbEntity
  8
default
100
AcDbCircle
 10
3563.0
 20
901.0
 30
0.0
 40
5.0
100
AcDbArc
 50
0.0
 51
90.0
  0
SOLID
  5
1EC
330
18
100
AcDbEntity
  8
default
100
AcDbTrace
 10
3598.8095
 20
929.4885
 30
0.0
 11
3606.6428
 21
929.4885
 31
0.0
 12
3602.7262
 22
906.0
 32
0.0
 13
3602.7262
 23
906.0
 33
0.0
  0
SOLID
  5
1ED
330
18
100
AcDbEntity
  8
default
100
AcDbTrace
 10
3606.6428
 20
837.5115
 30
0.0
 11
3598.8095
 21
837.5115
 31
0.0
 12
3602.7262
 22
861.0
 32
0.0
 13
3602.7262
 23
861.0
 33
0.0
  0
LINE
  5
1EE
330
18
100
AcDbEntity
  8
default
100
AcDbLine
 10
3602.7262
 20
906.0
 30
0.0
 11
3602.7262
 21
959.364
 31
0.0
  0
LINE
  5
1EF
330
18
100
AcDbEntity
  8
default
100
AcDbLine
 10
3602.7262
 20
813.375
 30
0.0
 11
3602.7262
 21
861.0
 31
0.0
  0
LINE
  5
1F0
330
18
100
AcDbEntity
  8
default
100
AcDbLine
 10
3602.7262
 20
959.364
 30
0.0
 11
3626.5387
 21
959.364
 31
0.0
  0
TEXT
  5
1F1
330
18
100
AcDbEntity
  8
default
100
AcDbText
 10
3634.4762
 20
951.1771
 30
0.0
 40
16.0421
  1
45mm (armrest thickness)
  7
Arial
100
AcDbText
  0
LINE
  5
1F2
330
18
100
AcDbEntity
  8
default
100
AcDbLine
 10
3575.9375
 20
861.0
 30
0.0
 11
3618.6012
 21
861.0
 31
0.0
  0
LINE
  5
1F3
330
18
100
AcDbEntity
  8
default
100
AcDbLine
 10
3570.9375
 20
906.0
 30
0.0
 11
3618.6012
 21
906.0
 31
0.0
  0
TEXT
  5
1F4
330
18
100
AcDbEntity
  8
default
100
AcDbText
 10
4250.0
 20
630.0
 30
0.0
 40
16.0421
  1
with its height-adjusting legs.
  7
Arial
100
AcDbText
  0
TEXT
  5
1F5
330
18
100
AcDbEntity
  8
default
100
AcDbText
 10
4250.0
 20
661.8131
 30
0.0
 40
16.0421
  1
Length of the armrest
  7
Arial
100
AcDbText
  0
SOLID
  5
1F6
330
18
100
AcDbEntity
  8
default
100
AcDbTrace
 10
4198.556
 20
882.5115
 30
0.0
 11
4190.7226
 21
882.5115
 31
0.0
 12
4194.6393
 22
906.0
 32
0.0
 13
4194.6393
 23
906.0
 33
0.0
  0
SOLID
  5
1F7
330
18
100
AcDbEntity
  8
default
100
AcDbTrace
 10
4190.7226
 20
299.4885
 30
0.0
 11
4198.556
 21
299.4885
 31
0.0
 12
4194.6393
 22
276.0
 32
0.0
 13
4194.6393
 23
276.0
 33
0.0
  0
LINE
  5
1F8
330
18
100
AcDbEntity
  8
default
100
AcDbLine
 10
4194.6393
 20
670.4072
 30
0.0
 11
4194.6393
 21
906.0
 31
0.0
  0
LINE
  5
1F9
330
18
100
AcDbEntity
  8
default
100
AcDbLine
 10
4194.6393
 20
276.0
 30
0.0
 11
4194.6393
 21
633.3656
 31
0.0
  0
TEXT
  5
1FA
330
18
100
AcDbEntity
  8
default
100
AcDbText
 10
4158.1822
 20
643.6995
 30
0.0
 40
16.0421
  1
630mm
  7
Arial
100
AcDbText
  0
LINE
  5
1FB
330
18
100
AcDbEntity
  8
default
100
AcDbLine
 10
3559.9375
 20
276.0
 30
0.0
 11
4210.5143
 21
276.0
 31
0.0
  0
LINE
  5
1FC
330
18
100
AcDbEntity
  8
default
100
AcDbLine
 10
3570.9375
 20
906.0
 30
0.0
 11
4210.5143
 21
906.0
 31
0.0
  0
ARC
  5
1FD
330
18
100
AcDbEntity
  8
default
100
AcDbCircle
 10
81.0
 20
1452.5
 30
0.0
 40
26.0
100
AcDbArc
 50
90.0
 51
180.0
  0
LINE
  5
1FE
330
18
100
AcDbEntity
  8
default
100
AcDbLine
 10
55.0
 20
1452.5
 30
0.0
 11
55.0
 21
1452.5
 31
0.0
  0
ARC
  5
1FF
330
18
100
AcDbEntity
  8
default
100
AcDbCircle
 10
81.0
 20
1452.5
 30
0.0
 40
26.0
100
AcDbArc
 50
180.0
 51
270.0
  0
LINE
  5
200
330
18
100
AcDbEntity
  8
default
100
AcDbLine
 10
81.0
 20
1478.5
 30
0.0
 11
1129.0
 21
1478.5
 31
0.0
  0
ARC
  5
201
330
18
100
AcDbEntity
  8
default
100
AcDbCircle
 10
1129.0
 20
1452.5
 30
0.0
 40
26.0
100
AcDbArc
 50
0.0
 51
90.0
  0
LINE
  5
202
330
18
100
AcDbEntity
  8
default
100
AcDbLine
 10
81.0
 20
1426.5
 30
0.0
 11
1129.0
 21
1426.5
 31
0.0
  0
LINE
  5
203
330
18
100
AcDbEntity
  8
default
100
AcDbLine
 10
1155.0
 20
1452.5
 30
0.0
 11
1155.0
 21
1452.5
 31
0.0
  0
ARC
  5
204
330
18
100
AcDbEntity
  8
default
100
AcDbCircle
 10
1129.0
 20
1452.5
 30
0.0
 40
26.0
100
AcDbArc
 50
270.0
 51
0.0
  0
LINE
  5
205
330
18
100
AcDbEntity
  8
default
100
AcDbLine
 10
148.0
 20
1478.5
 30
0.0
 11
148.0
 21
1534.5
 31
0.0
  0
LINE
  5
206
330
18
100
AcDbEntity
  8
default
100
AcDbLine
 10
172.0
 20
1478.5
 30
0.0
 11
172.0
 21
1534.5
 31
0.0
  0
LINE
  5
207
330
18
100
AcDbEntity
  8
default
100
AcDbLine
 10
1062.0
 20
1478.5
 30
0.0
 11
1062.0
 21
1534.5
 31
0.0
  0
LINE
  5
208
330
18
100
AcDbEntity
  8
default
100
AcDbLine
 10
1038.0
 20
1478.5
 30
0.0
 11
1038.0
 21
1534.5
 31
0.0
  0
TEXT
  5
209
330
18
100
AcDbEntity
  8
default
100
AcDbText
 10
1192.7836
 20
1864.3399
 30
0.0
 40
16.0421
  1
800mm
  7
Arial
100
AcDbText
  0
SOLID
  5
20A
330
18
100
AcDbEntity
  8
default
100
AcDbTrace
 10
1744.3195
 20
2311.0115
 30
0.0
 11
1736.4861
 21
2311.0115
 31
0.0
 12
1740.4028
 22
2334.5
 32
0.0
 13
1740.4028
 23
2334.5
 33
0.0
  0
SOLID
  5
20B
330
18
100
AcDbEntity
  8
default
100
AcDbTrace
 10
1736.4861
 20
1449.9885
 30
0.0
 11
1744.3195
 21
1449.9885
 31
0.0
 12
1740.4028
 22
1426.5
 32
0.0
 13
1740.4028
 23
1426.5
 33
0.0
  0
LINE
  5
20C
330
18
100
AcDbEntity
  8
default
100
AcDbLine
 10
1740.4028
 20
1882.8607
 30
0.0
 11
1740.4028
 21
2334.5
 31
0.0
  0
LINE
  5
20D
330
18
100
AcDbEntity
  8
default
100
AcDbLine
 10
1740.4028
 20
1426.5
 30
0.0
 11
1740.4028
 21
1845.8191
 31
0.0
  0
TEXT
  5
20E
330
18
100
AcDbEntity
  8
default
100
AcDbText
 10
1703.9887
 20
1856.153
 30
0.0
 40
16.0421
  1
908mm
  7
Arial
100
AcDbText
  0
LINE
  5
20F
330
18
100
AcDbEntity
  8
default
100
AcDbLine
 10
1159.9375
 20
2334.5
 30
0.0
 11
1756.2778
 21
2334.5
 31
0.0
  0
LINE
  5
210
330
18
100
AcDbEntity
  8
default
100
AcDbLine
 10
1162.9375
 20
1426.5
 30
0.0
 11
1756.2778
 21
1426.5
 31
0.0
  0
TEXT
  5
211
330
18
100
AcDbEntity
  8
default
100
AcDbText
 10
1817.4854
 20
1856.153
 30
0.0
 40
16.0421
  1
Shorter side of the top-plate + armrest
  7
Arial
100
AcDbText
  0
SOLID
  5
212
330
18
100
AcDbEntity
  8
default
100
AcDbTrace
 10
1308.2719
 20
1501.9885
 30
0.0
 11
1316.1053
 21
1501.9885
 31
0.0
 12
1312.1886
 22
1478.5
 32
0.0
 13
1312.1886
 23
1478.5
 33
0.0
  0
SOLID
  5
213
330
18
100
AcDbEntity
  8
default
100
AcDbTrace
 10
1316.1053
 20
1403.0115
 30
0.0
 11
1308.2719
 21
1403.0115
 31
0.0
 12
1312.1886
 22
1426.5
 32
0.0
 13
1312.1886
 23
1426.5
 33
0.0
  0
LINE
  5
214
330
18
100
AcDbEntity
  8
default
100
AcDbLine
 10
1312.1886
 20
1478.5
 30
0.0
 11
1312.1886
 21
1534.1943
 31
0.0
  0
LINE
  5
215
330
18
100
AcDbEntity
  8
default
100
AcDbLine
 10
1312.1886
 20
1378.875
 30
0.0
 11
1312.1886
 21
1426.5
 31
0.0
  0
LINE
  5
216
330
18
100
AcDbEntity
  8
default
100
AcDbLine
 10
1312.1886
 20
1534.1943
 30
0.0
 11
1336.0011
 21
1534.1943
 31
0.0
  0
TEXT
  5
217
330
18
100
AcDbEntity
  8
default
100
AcDbText
 10
1343.9386
 20
1526.0074
 30
0.0
 40
16.0421
  1
52mm
  7
Arial
100
AcDbText
  0
LINE
  5
218
330
18
100
AcDbEntity
  8
default
100
AcDbLine
 10
1162.9375
 20
1478.5
 30
0.0
 11
1328.0636
 21
1478.5
 31
0.0
  0
LINE
  5
219
330
18
100
AcDbEntity
  8
default
100
AcDbLine
 10
1162.9375
 20
1426.5
 30
0.0
 11
1328.0636
 21
1426.5
 31
0.0
  0
ARC
  5
21A
330
18
100
AcDbEntity
  8
default
100
AcDbCircle
 10
60.0
 20
901.0
 30
0.0
 40
5.0
100
AcDbArc
 50
90.0
 51
180.0
  0
LINE
  5
21B
330
18
100
AcDbEntity
  8
default
100
AcDbLine
 10
60.0
 20
906.0
 30
0.0
 11
1150.0
 21
906.0
 31
0.0
  0
ARC
  5
21C
330
18
100
AcDbEntity
  8
default
100
AcDbCircle
 10
1150.0
 20
901.0
 30
0.0
 40
5.0
100
AcDbArc
 50
0.0
 51
90.0
  0
LINE
  5
21D
330
18
100
AcDbEntity
  8
default
100
AcDbLine
 10
1155.0
 20
861.0
 30
0.0
 11
1155.0
 21
901.0
 31
0.0
  0
LINE
  5
21E
330
18
100
AcDbEntity
  8
default
100
AcDbLine
 10
55.0
 20
861.0
 30
0.0
 11
55.0
 21
901.0
 31
0.0
  0
SOLID
  5
21F
330
18
100
AcDbEntity
  8
default
100
AcDbTrace
 10
1228.7424
 20
882.5115
 30
0.0
 11
1220.909
 21
882.5115
 31
0.0
 12
1224.8257
 22
906.0
 32
0.0
 13
1224.8257
 23
906.0
 33
0.0
  0
SOLID
  5
220
330
18
100
AcDbEntity
  8
default
100
AcDbTrace
 10
1220.909
 20
842.9885
 30
0.0
 11
1228.7424
 21
842.9885
 31
0.0
 12
1224.8257
 22
819.5
 32
0.0
 13
1224.8257
 23
819.5
 33
0.0
  0
LINE
  5
221
330
18
100
AcDbEntity
  8
default
100
AcDbLine
 10
1224.8257
 20
819.5
 30
0.0
 11
1224.8257
 21
952.8846
 31
0.0
  0
LINE
  5
222
330
18
100
AcDbEntity
  8
default
100
AcDbLine
 10
1224.8257
 20
952.8846
 30
0.0
 11
1248.6382
 21
952.8846
 31
0.0
  0
TEXT
  5
223
330
18
100
AcDbEntity
  8
default
100
AcDbText
 10
1256.5757
 20
944.6976
 30
0.0
 40
16.0421
  1
~86.5mm
  7
Arial
100
AcDbText
  0
LINE
  5
224
330
18
100
AcDbEntity
  8
default
100
AcDbLine
 10
1162.9375
 20
819.5
 30
0.0
 11
1240.7007
 21
819.5
 31
0.0
  0
LINE
  5
225
330
18
100
AcDbEntity
  8
default
100
AcDbLine
 10
1157.9375
 20
906.0
 30
0.0
 11
1240.7007
 21
906.0
 31
0.0
  0
TEXT
  5
226
330
18
100
AcDbEntity
  8
default
100
AcDbText
 10
1370.0
 20
945.0
 30
0.0
 40
16.0421
  1
The hight of the armrest can move higher or lower according to
  7
Arial
100
AcDbText
  0
TEXT
  5
227
330
18
100
AcDbEntity
  8
default
100
AcDbText
 10
1370.0
 20
910.0
 30
0.0
 40
16.0421
  1
the distance of the holes on the legs of the armrest which is 50mm and
  7
Arial
100
AcDbText
  0
TEXT
  5
228
330
18
100
AcDbEntity
  8
default
100
AcDbText
 10
1370.0
 20
875.0
 30
0.0
 40
16.0421
  1
as the hight sensing levelers were adjusted.
  7
Arial
100
AcDbText
  0
SOLID
  5
229
330
18
100
AcDbEntity
  8
default
100
AcDbTrace
 10
1177.1246
 20
929.4885
 30
0.0
 11
1184.958
 21
929.4885
 31
0.0
 12
1181.0413
 22
906.0
 32
0.0
 13
1181.0413
 23
906.0
 33
0.0
  0
SOLID
  5
22A
330
18
100
AcDbEntity
  8
default
100
AcDbTrace
 10
1184.958
 20
837.5115
 30
0.0
 11
1177.1246
 21
837.5115
 31
0.0
 12
1181.0413
 22
861.0
 32
0.0
 13
1181.0413
 23
861.0
 33
0.0
  0
LINE
  5
22B
330
18
100
AcDbEntity
  8
default
100
AcDbLine
 10
1181.0413
 20
906.0
 30
0.0
 11
1181.0413
 21
1031.6461
 31
0.0
  0
LINE
  5
22C
330
18
100
AcDbEntity
  8
default
100
AcDbLine
 10
1181.0413
 20
813.375
 30
0.0
 11
1181.0413
 21
861.0
 31
0.0
  0
LINE
  5
22D
330
18
100
AcDbEntity
  8
default
100
AcDbLine
 10
1181.0413
 20
1031.6461
 30
0.0
 11
1204.8538
 21
1031.6461
 31
0.0
  0
TEXT
  5
22E
330
18
100
AcDbEntity
  8
default
100
AcDbText
 10
1212.7913
 20
1023.4592
 30
0.0
 40
16.0421
  1
45mm
  7
Arial
100
AcDbText
  0
LINE
  5
22F
330
18
100
AcDbEntity
  8
default
100
AcDbLine
 10
1162.9375
 20
861.0
 30
0.0
 11
1196.9163
 21
861.0
 31
0.0
  0
LINE
  5
230
330
18
100
AcDbEntity
  8
default
100
AcDbLine
 10
1157.9375
 20
906.0
 30
0.0
 11
1196.9163
 21
906.0
 31
0.0
  0
SOLID
  5
231
330
18
100
AcDbEntity
  8
default
100
AcDbTrace
 10
2743.4885
 20
-25.4625
 30
0.0
 11
2743.4885
 21
-33.2882
 31
0.0
 12
2720.0
 22
-29.3753
 32
0.0
 13
2720.0
 23
-29.3753
 33
0.0
  0
SOLID
  5
232
330
18
100
AcDbEntity
  8
default
100
AcDbTrace
 10
3376.5115
 20
-33.2882
 30
0.0
 11
3376.5115
 21
-25.4625
 31
0.0
 12
3400.0
 22
-29.3753
 32
0.0
 13
3400.0
 23
-29.3753
 33
0.0
  0
LINE
  5
233
330
18
100
AcDbEntity
  8
default
100
AcDbLine
 10
2720.0
 20
-29.3753
 30
0.0
 11
3543.0177
 21
-29.3753
 31
0.0
  0
LINE
  5
234
330
18
100
AcDbEntity
  8
default
100
AcDbLine
 10
2720.0
 20
-45.2503
 30
0.0
 11
2720.0
 21
73.0625
 31
0.0
  0
LINE
  5
235
330
18
100
AcDbEntity
  8
default
100
AcDbLine
 10
3400.0
 20
-45.2503
 30
0.0
 11
3400.0
 21
73.0625
 31
0.0
  0
TEXT
  5
236
330
18
100
AcDbEntity
  8
default
100
AcDbText
 10
345.0631
 20
949.4312
 30
0.0
 40
16.0421
  1
Top-plate and armrest length are the same.
  7
Arial
100
AcDbText
  0
TEXT
  5
237
330
18
100
AcDbEntity
  8
default
100
AcDbText
 10
194.765
 20
1864.5002
 30
0.0
 40
53.4737
  1
(optional)
  7
Arial
100
AcDbText
  0
TEXT
  5
238
330
18
100
AcDbEntity
  8
default
100
AcDbText
 10
179.5859
 20
1946.7905
 30
0.0
 40
53.4737
  1
Optical Hole Pattern here
  7
Arial
100
AcDbText
  0
TEXT
  5
239
330
18
100
AcDbEntity
  8
default
100
AcDbText
 10
3550.9552
 20
-37.5623
 30
0.0
 40
16.0421
  1
680mm
  7
Arial
100
AcDbText
  0
TEXT
  5
23A
330
18
100
AcDbEntity
  8
default
100
AcDbText
 10
323.1414
 20
-176.3867
 30
0.0
 40
26.7368
  1
1100 x 800mm table: Longer side of the leg-assembly with top-plate and armrest from the front view
  7
Arial
100
AcDbText
  0
TEXT
  5
23B
330
18
100
AcDbEntity
  8
default
100
AcDbText
 10
2660.0
 20
-150.0
 30
0.0
 40
26.7368
  1
1100 x 800 mm table: Shorter side of the leg-assembly with top-plate and armrest view
  7
Arial
100
AcDbText
  0
TEXT
  5
23C
330
18
100
AcDbEntity
  8
default
100
AcDbText
 10
230.0
 20
1250.0
 30
0.0
 40
26.7368
  1
1100 x 800 mm table: Top-plate with armrest upper view
  7
Arial
100
AcDbText
  0
TEXT
  5
23D
330
18
100
AcDbEntity
  8
default
100
AcDbText
 10
68.2165
 20
-391.4992
 30
0.0
 40
57.7516
  1
1100 x 800 mm table with wooden armrest: Upper view; Longer side view; Shorter side view;
  7
Arial
100
AcDbText
  0
ENDSEC
  0
SECTION
  2
OBJECTS
  0
DICTIONARY
  5
C
330
0
100
AcDbDictionary
281
     1
  3
ACAD_GROUP
350
D
  3
ACAD_LAYOUT
350
23E
  3
ACAD_MLEADERSTYLE
350
267
  3
ACAD_MLINESTYLE
350
1B
  3
ACAD_SCALELIST
350
241
  3
ACAD_TABLESTYLE
350
266
  3
AcDbVariableDictionary
350
263
  0
DICTIONARY
  5
D
102
{ACAD_REACTORS
330
C
102
}
330
C
100
AcDbDictionary
281
     1
  0
DICTIONARY
  5
23E
102
{ACAD_REACTORS
330
C
102
}
330
C
100
AcDbDictionary
281
     1
  3
Layout1
350
240
  3
Model
350
23F
  0
DICTIONARY
  5
267
102
{ACAD_REACTORS
330
C
102
}
330
C
100
AcDbDictionary
281
     1
  0
DICTIONARY
  5
1B
102
{ACAD_REACTORS
330
C
102
}
330
C
100
AcDbDictionary
281
     1
  3
STANDARD
350
1C
  0
DICTIONARY
  5
241
102
{ACAD_REACTORS
330
C
102
}
330
C
100
AcDbDictionary
281
     1
  3
A0
350
242
  3
A1
350
243
  3
A2
350
244
  3
A3
350
245
  3
A4
350
246
  3
A5
350
247
  3
A6
350
248
  3
A7
350
249
  3
A8
350
24A
  3
A9
350
24B
  3
B0
350
24C
  3
B1
350
24D
  3
B2
350
24E
  3
B3
350
24F
  3
B4
350
250
  3
B5
350
251
  3
B6
350
252
  3
B7
350
253
  3
B8
350
254
  3
B9
350
255
  3
C0
350
256
  3
C1
350
257
  3
C2
350
258
  3
C3
350
259
  3
C4
350
25A
  3
C5
350
25B
  3
C6
350
25C
  3
C7
350
25D
  3
C8
350
25E
  3
C9
350
25F
  3
D0
350
260
  3
D1
350
261
  3
D2
350
262
  0
DICTIONARY
  5
266
102
{ACAD_REACTORS
330
C
102
}
330
C
100
AcDbDictionary
281
     1
  0
DICTIONARY
  5
263
102
{ACAD_REACTORS
330
C
102
}
330
C
100
AcDbDictionary
281
     1
  3
CANNOSCALE
350
264
  3
LIGHTINGUNITS
350
265
  0
LAYOUT
  5
240
102
{ACAD_REACTORS
330
23E
102
}
330
23E
100
AcDbPlotSettings
  1

  2
none_device
  4

  6

 40
0.0
 41
0.0
 42
0.0
 43
0.0
 44
0.0
 45
0.0
 46
0.0
 47
0.0
 48
0.0
 49
0.0
140
0.0
141
0.0
142
1.0
143
1.0
 70
   688
 72
     0
 73
     0
 74
     5
  7

 75
    16
 76
     0
 77
     2
 78
   300
147
1.0
148
0.0
149
0.0
100
AcDbLayout
  1
Layout1
 70
     1
 71
     1
 10
0.0
 20
0.0
 11
0.0
 21
0.0
 12
0.0
 22
0.0
 32
0.0
 14
0.0
 24
0.0
 34
0.0
 15
0.0
 25
0.0
 35
0.0
146
0.0
 13
0.0
 23
0.0
 33
0.0
 16
1.0
 26
0.0
 36
0.0
 17
0.0
 27
1.0
 37
0.0
 76
     0
330
15
  0
LAYOUT
  5
23F
102
{ACAD_REACTORS
330
23E
102
}
330
23E
100
AcDbPlotSettings
  1

  2
none_device
  4

  6

 40
0.0
 41
0.0
 42
0.0
 43
0.0
 44
0.0
 45
0.0
 46
0.0
 47
0.0
 48
0.0
 49
0.0
140
0.0
141
0.0
142
1.0
143
1.0
 70
   688
 72
     0
 73
     0
 74
     5
  7

 75
    16
 76
     0
 77
     2
 78
   300
147
1.0
148
0.0
149
0.0
100
AcDbLayout
  1
Model
 70
     1
 71
     0
 10
0.0
 20
0.0
 11
0.0
 21
0.0
 12
0.0
 22
0.0
 32
0.0
 14
0.0
 24
0.0
 34
0.0
 15
0.0
 25
0.0
 35
0.0
146
0.0
 13
0.0
 23
0.0
 33
0.0
 16
1.0
 26
0.0
 36
0.0
 17
0.0
 27
1.0
 37
0.0
 76
     0
330
18
331
1E
  0
MLINESTYLE
  5
1C
102
{ACAD_REACTORS
330
1B
102
}
330
1B
100
AcDbMlineStyle
  2
STANDARD
 70
     0
  3

 62
   256
 51
90.0
 52
90.0
 71
     2
 49
0.5
 62
   256
  6
BYLAYER
 49
-0.5
 62
   256
  6
BYLAYER
  0
SCALE
  5
242
102
{ACAD_REACTORS
330
241
102
}
330
241
100
AcDbScale
 70
     0
300
1:1
140
1.0
141
1.0
290
     1
  0
SCALE
  5
243
102
{ACAD_REACTORS
330
241
102
}
330
241
100
AcDbScale
 70
     0
300
1:2
140
1.0
141
2.0
290
     0
  0
SCALE
  5
244
102
{ACAD_REACTORS
330
241
102
}
330
241
100
AcDbScale
 70
     0
300
1:4
140
1.0
141
4.0
290
     0
  0
SCALE
  5
245
102
{ACAD_REACTORS
330
241
102
}
330
241
100
AcDbScale
 70
     0
300
1:5
140
1.0
141
5.0
290
     0
  0
SCALE
  5
246
102
{ACAD_REACTORS
330
241
102
}
330
241
100
AcDbScale
 70
     0
300
1:8
140
1.0
141
8.0
290
     0
  0
SCALE
  5
247
102
{ACAD_REACTORS
330
241
102
}
330
241
100
AcDbScale
 70
     0
300
1:10
140
1.0
141
10.0
290
     0
  0
SCALE
  5
248
102
{ACAD_REACTORS
330
241
102
}
330
241
100
AcDbScale
 70
     0
300
1:16
140
1.0
141
16.0
290
     0
  0
SCALE
  5
249
102
{ACAD_REACTORS
330
241
102
}
330
241
100
AcDbScale
 70
     0
300
1:20
140
1.0
141
20.0
290
     0
  0
SCALE
  5
24A
102
{ACAD_REACTORS
330
241
102
}
330
241
100
AcDbScale
 70
     0
300
1:30
140
1.0
141
30.0
290
     0
  0
SCALE
  5
24B
102
{ACAD_REACTORS
330
241
102
}
330
241
100
AcDbScale
 70
     0
300
1:40
140
1.0
141
40.0
290
     0
  0
SCALE
  5
24C
102
{ACAD_REACTORS
330
241
102
}
330
241
100
AcDbScale
 70
     0
300
1:50
140
1.0
141
50.0
290
     0
  0
SCALE
  5
24D
102
{ACAD_REACTORS
330
241
102
}
330
241
100
AcDbScale
 70
     0
300
1:100
140
1.0
141
100.0
290
     0
  0
SCALE
  5
24E
102
{ACAD_REACTORS
330
241
102
}
330
241
100
AcDbScale
 70
     0
300
2:1
140
2.0
141
1.0
290
     0
  0
SCALE
  5
24F
102
{ACAD_REACTORS
330
241
102
}
330
241
100
AcDbScale
 70
     0
300
4:1
140
4.0
141
1.0
290
     0
  0
SCALE
  5
250
102
{ACAD_REACTORS
330
241
102
}
330
241
100
AcDbScale
 70
     0
300
8:1
140
8.0
141
1.0
290
     0
  0
SCALE
  5
251
102
{ACAD_REACTORS
330
241
102
}
330
241
100
AcDbScale
 70
     0
300
10:1
140
10.0
141
1.0
290
     0
  0
SCALE
  5
252
102
{ACAD_REACTORS
330
241
102
}
330
241
100
AcDbScale
 70
     0
300
100:1
140
100.0
141
1.0
290
     0
  0
SCALE
  5
253
102
{ACAD_REACTORS
330
241
102
}
330
241
100
AcDbScale
 70
     0
300
1/128" = 1'-0"
140
0.0078125
141
12.0
290
     0
  0
SCALE
  5
254
102
{ACAD_REACTORS
330
241
102
}
330
241
100
AcDbScale
 70
     0
300
1/64" = 1'-0"
140
0.015625
141
12.0
290
     0
  0
SCALE
  5
255
102
{ACAD_REACTORS
330
241
102
}
330
241
100
AcDbScale
 70
     0
300
1/32" = 1'-0"
140
0.03125
141
12.0
290
     0
  0
SCALE
  5
256
102
{ACAD_REACTORS
330
241
102
}
330
241
100
AcDbScale
 70
     0
300
1/16" = 1'-0"
140
0.0625
141
12.0
290
     0
  0
SCALE
  5
257
102
{ACAD_REACTORS
330
241
102
}
330
241
100
AcDbScale
 70
     0
300
3/32" = 1'-0"
140
0.09375
141
12.0
290
     0
  0
SCALE
  5
258
102
{ACAD_REACTORS
330
241
102
}
330
241
100
AcDbScale
 70
     0
300
1/8" = 1'-0"
140
0.125
141
12.0
290
     0
  0
SCALE
  5
259
102
{ACAD_REACTORS
330
241
102
}
330
241
100
AcDbScale
 70
     0
300
3/16" = 1'-0"
140
0.1875
141
12.0
290
     0
  0
SCALE
  5
25A
102
{ACAD_REACTORS
330
241
102
}
330
241
100
AcDbScale
 70
     0
300
1/4" = 1'-0"
140
0.25
141
12.0
290
     0
  0
SCALE
  5
25B
102
{ACAD_REACTORS
330
241
102
}
330
241
100
AcDbScale
 70
     0
300
3/8" = 1'-0"
140
0.375
141
12.0
290
     0
  0
SCALE
  5
25C
102
{ACAD_REACTORS
330
241
102
}
330
241
100
AcDbScale
 70
     0
300
1/2" = 1'-0"
140
0.5
141
12.0
290
     0
  0
SCALE
  5
25D
102
{ACAD_REACTORS
330
241
102
}
330
241
100
AcDbScale
 70
     0
300
3/4" = 1'-0"
140
0.75
141
12.0
290
     0
  0
SCALE
  5
25E
102
{ACAD_REACTORS
330
241
102
}
330
241
100
AcDbScale
 70
     0
300
1" = 1'-0"
140
1.0
141
12.0
290
     0
  0
SCALE
  5
25F
102
{ACAD_REACTORS
330
241
102
}
330
241
100
AcDbScale
 70
     0
300
1-1/2" = 1'-0"
140
1.5
141
12.0
290
     0
  0
SCALE
  5
260
102
{ACAD_REACTORS
330
241
102
}
330
241
100
AcDbScale
 70
     0
300
3" = 1'-0"
140
3.0
141
12.0
290
     0
  0
SCALE
  5
261
102
{ACAD_REACTORS
330
241
102
}
330
241
100
AcDbScale
 70
     0
300
6" = 1'-0"
140
6.0
141
12.0
290
     0
  0
SCALE
  5
262
102
{ACAD_REACTORS
330
241
102
}
330
241
100
AcDbScale
 70
     0
300
1'-0" = 1'-0"
140
12.0
141
12.0
290
     0
  0
DICTIONARYVAR
  5
264
102
{ACAD_REACTORS
330
263
102
}
330
263
100
DictionaryVariables
280
     0
  1
1:1
  0
DICTIONARYVAR
  5
265
102
{ACAD_REACTORS
330
263
102
}
330
263
100
DictionaryVariables
280
     0
  1
0
  0
ENDSEC
  0
EOF
